0
SECTION
2
HEADER
9
$ACADVER
1
AC1015
9
$HANDSEED
5
30
0
ENDSEC
0
SECTION
2
TABLES
0
TABLE
2
VPORT
5
8
0
ENDTAB
0
TABLE
2
LTYPE
330
1
100
AcDbSymbolTable 
70
13
0
LTYPE
330
e
100
AcDbSymbolTableRecord
100
AcDbLinetypeTableRecord
2
CONTINUOUS
70
0
3
Continuous ________________________________
72
65
73
2
73
0
40
0.000
0
LTYPE
330
f
100
AcDbSymbolTableRecord
100
AcDbLinetypeTableRecord
2
DASHED
70
0
3
Dashed _ _ _ _ _ _ _ _ _
72
65
73
2
73
2
40
5.000
49
2.50
74
0
49
-2.50
74
0
0
LTYPE
330
10
100
AcDbSymbolTableRecord
100
AcDbLinetypeTableRecord
2
DOT
70
0
3
Dot ...................
72
65
73
2
73
2
40
1.000
49
0.00
74
0
49
-1.00
74
0
0
LTYPE
330
11
100
AcDbSymbolTableRecord
100
AcDbLinetypeTableRecord
2
DASHDOT
70
0
3
Dashdot or center ___ _ ___ _ ___ _ ___ _ ___
72
65
73
2
73
4
40
10.000
49
6.00
74
0
49
-1.50
74
0
49
1.00
74
0
49
-1.50
74
0
0
LTYPE
330
12
100
AcDbSymbolTableRecord
100
AcDbLinetypeTableRecord
2
PHANTOM
70
0
3
Phantom ___ _ _ ___ _ _ ___ _ _ ___ _ _ ___
72
65
73
2
73
6
40
12.000
49
6.00
74
0
49
-1.44
74
0
49
0.84
74
0
49
-1.44
74
0
49
0.84
74
0
49
-1.44
74
0
0
ENDTAB
0
TABLE
2
LAYER
5
2
330
0
100
AcDbSymbolTable
70
1
0
LAYER
5
a
330
2
100
AcDbSymbolTableRecord
100
AcDbLayerTableRecord
2
0
70
0
62
7
6
Continuous
370
-3
390
F
0
ENDTAB
0
TABLE
2
STYLE
5
3
330
0
100
AcDbSymbolTable
70
1
0
ENDTAB
0
TABLE
2
VIEW
5
6
330
0
100
AcDbSymbolTable
70
0
0
ENDTAB
0
TABLE
2
UCS
5
7
330
0
100
AcDbSymbolTable
70
0
0
ENDTAB
0
TABLE
2
DIMSTYLE
5
5
330
0
100
AcDbSymbolTable
70
1
100
AcDbDimStyleTable
0
ENDTAB
0
TABLE
2
BLOCK_RECORD
5
1
330
0
100
AcDbSymbolTable
70
1
0
ENDTAB
0
ENDSEC
0
SECTION
2
ENTITIES
0
LINE
330
1
100
AcDbEntity
8
Sheet
6
CONTINUOUS
62
0
370
0
100
AcDbLine
10
0.0000000000000000
20
0.0000000000000000
30
0.0000000000000000
11
1000.0000000000000000
21
0.0000000000000000
31
0.0000000000000000
0
LINE
330
1
100
AcDbEntity
8
Sheet
6
CONTINUOUS
62
0
370
0
100
AcDbLine
10
1000.0000000000000000
20
0.0000000000000000
30
0.0000000000000000
11
1000.0000000000000000
21
600.0000000000000000
31
0.0000000000000000
0
LINE
330
1
100
AcDbEntity
8
Sheet
6
CONTINUOUS
62
0
370
0
100
AcDbLine
10
1000.0000000000000000
20
600.0000000000000000
30
0.0000000000000000
11
0.0000000000000000
21
600.0000000000000000
31
0.0000000000000000
0
LINE
330
1
100
AcDbEntity
8
Sheet
6
CONTINUOUS
62
0
370
0
100
AcDbLine
10
0.0000000000000000
20
600.0000000000000000
30
0.0000000000000000
11
0.0000000000000000
21
0.0000000000000000
31
0.0000000000000000
0
LINE
330
1
100
AcDbEntity
8
Cut
6
CONTINUOUS
62
5
370
0
100
AcDbLine
10
877.9899999999994407
20
588.4799999999999045
30
0.0000000000000035
11
893.0099999999994225
21
588.4800000000000182
31
0.0000000000000026
0
LINE
330
1
100
AcDbEntity
8
Cut
6
CONTINUOUS
62
5
370
0
100
AcDbLine
10
893.0099999999994225
20
588.4800000000000182
30
0.0000000000000026
11
893.0099999999994225
21
595.0000000000000000
31
0.0000000000000026
0
LINE
330
1
100
AcDbEntity
8
Cut
6
CONTINUOUS
62
5
370
0
100
AcDbLine
10
893.0099999999994225
20
595.0000000000000000
30
0.0000000000000026
11
910.9899999999994407
21
595.0000000000001137
31
0.0000000000000017
0
LINE
330
1
100
AcDbEntity
8
Cut
6
CONTINUOUS
62
5
370
0
100
AcDbLine
10
910.9899999999994407
20
595.0000000000001137
30
0.0000000000000017
11
910.9899999999995543
21
588.4800000000001319
31
0.0000000000000017
0
LINE
330
1
100
AcDbEntity
8
Cut
6
CONTINUOUS
62
5
370
0
100
AcDbLine
10
910.9899999999995543
20
588.4800000000001319
30
0.0000000000000017
11
926.0099999999994225
21
588.4800000000001319
31
0.0000000000000009
0
LINE
330
1
100
AcDbEntity
8
Cut
6
CONTINUOUS
62
5
370
0
100
AcDbLine
10
926.0099999999994225
20
588.4800000000001319
30
0.0000000000000009
11
926.0099999999994225
21
595.0000000000002274
31
0.0000000000000009
0
LINE
330
1
100
AcDbEntity
8
Cut
6
CONTINUOUS
62
5
370
0
100
AcDbLine
10
926.0099999999994225
20
595.0000000000002274
30
0.0000000000000009
11
943.9899999999994407
21
595.0000000000003411
31
-0.0000000000000009
0
LINE
330
1
100
AcDbEntity
8
Cut
6
CONTINUOUS
62
5
370
0
100
AcDbLine
10
943.9899999999994407
20
595.0000000000003411
30
-0.0000000000000009
11
943.9899999999994407
21
588.4800000000002456
31
-0.0000000000000009
0
LINE
330
1
100
AcDbEntity
8
Cut
6
CONTINUOUS
62
5
370
0
100
AcDbLine
10
943.9899999999994407
20
588.4800000000002456
30
-0.0000000000000009
11
959.0099999999994225
21
588.4800000000003593
31
-0.0000000000000017
0
LINE
330
1
100
AcDbEntity
8
Cut
6
CONTINUOUS
62
5
370
0
100
AcDbLine
10
959.0099999999994225
20
588.4800000000003593
30
-0.0000000000000017
11
959.0099999999994225
21
595.0000000000003411
31
-0.0000000000000017
0
LINE
330
1
100
AcDbEntity
8
Cut
6
CONTINUOUS
62
5
370
0
100
AcDbLine
10
959.0099999999994225
20
595.0000000000003411
30
-0.0000000000000017
11
976.9899999999994407
21
595.0000000000004547
31
-0.0000000000000026
0
LINE
330
1
100
AcDbEntity
8
Cut
6
CONTINUOUS
62
5
370
0
100
AcDbLine
10
976.9899999999994407
20
595.0000000000004547
30
-0.0000000000000026
11
976.9899999999994407
21
588.4800000000004729
31
-0.0000000000000026
0
LINE
330
1
100
AcDbEntity
8
Cut
6
CONTINUOUS
62
5
370
0
100
AcDbLine
10
976.9899999999994407
20
588.4800000000004729
30
-0.0000000000000026
11
992.0099999999995362
21
588.4800000000004729
31
-0.0000000000000035
0
LINE
330
1
100
AcDbEntity
8
Cut
6
CONTINUOUS
62
5
370
0
100
AcDbLine
10
992.0099999999995362
20
588.4800000000004729
30
-0.0000000000000035
11
992.0099999999994225
21
595.0000000000005684
31
-0.0000000000000035
0
LINE
330
1
100
AcDbEntity
8
Cut
6
CONTINUOUS
62
5
370
0
100
AcDbLine
10
992.0099999999994225
20
595.0000000000005684
30
-0.0000000000000035
11
994.9999999999994316
21
595.0000000000005684
31
-0.0000000000000035
0
LINE
330
1
100
AcDbEntity
8
Cut
6
CONTINUOUS
62
5
370
0
100
AcDbLine
10
994.9999999999994316
20
595.0000000000005684
30
-0.0000000000000035
11
995.0000000000002274
21
433.0000000000005116
31
-0.0000000000000035
0
LINE
330
1
100
AcDbEntity
8
Cut
6
CONTINUOUS
62
5
370
0
100
AcDbLine
10
995.0000000000002274
20
433.0000000000005116
30
-0.0000000000000035
11
992.0100000000002183
21
433.0000000000005116
31
-0.0000000000000035
0
LINE
330
1
100
AcDbEntity
8
Cut
6
CONTINUOUS
62
5
370
0
100
AcDbLine
10
992.0100000000002183
20
433.0000000000005116
30
-0.0000000000000035
11
992.0100000000002183
21
439.5200000000004934
31
-0.0000000000000035
0
LINE
330
1
100
AcDbEntity
8
Cut
6
CONTINUOUS
62
5
370
0
100
AcDbLine
10
992.0100000000002183
20
439.5200000000004934
30
-0.0000000000000035
11
976.9900000000001228
21
439.5200000000004934
31
-0.0000000000000026
0
LINE
330
1
100
AcDbEntity
8
Cut
6
CONTINUOUS
62
5
370
0
100
AcDbLine
10
976.9900000000001228
20
439.5200000000004934
30
-0.0000000000000026
11
976.9900000000002365
21
433.0000000000003979
31
-0.0000000000000026
0
LINE
330
1
100
AcDbEntity
8
Cut
6
CONTINUOUS
62
5
370
0
100
AcDbLine
10
976.9900000000002365
20
433.0000000000003979
30
-0.0000000000000026
11
959.0100000000001046
21
433.0000000000003411
31
-0.0000000000000017
0
LINE
330
1
100
AcDbEntity
8
Cut
6
CONTINUOUS
62
5
370
0
100
AcDbLine
10
959.0100000000001046
20
433.0000000000003411
30
-0.0000000000000017
11
959.0100000000001046
21
439.5200000000003797
31
-0.0000000000000017
0
LINE
330
1
100
AcDbEntity
8
Cut
6
CONTINUOUS
62
5
370
0
100
AcDbLine
10
959.0100000000001046
20
439.5200000000003797
30
-0.0000000000000017
11
943.9900000000002365
21
439.5200000000003229
31
-0.0000000000000009
0
LINE
330
1
100
AcDbEntity
8
Cut
6
CONTINUOUS
62
5
370
0
100
AcDbLine
10
943.9900000000002365
20
439.5200000000003229
30
-0.0000000000000009
11
943.9900000000002365
21
433.0000000000002842
31
-0.0000000000000009
0
LINE
330
1
100
AcDbEntity
8
Cut
6
CONTINUOUS
62
5
370
0
100
AcDbLine
10
943.9900000000002365
20
433.0000000000002842
30
-0.0000000000000009
11
926.0100000000002183
21
433.0000000000001705
31
0.0000000000000009
0
LINE
330
1
100
AcDbEntity
8
Cut
6
CONTINUOUS
62
5
370
0
100
AcDbLine
10
926.0100000000002183
20
433.0000000000001705
30
0.0000000000000009
11
926.0100000000001046
21
439.5200000000002092
31
0.0000000000000009
0
LINE
330
1
100
AcDbEntity
8
Cut
6
CONTINUOUS
62
5
370
0
100
AcDbLine
10
926.0100000000001046
20
439.5200000000002092
30
0.0000000000000009
11
910.9900000000002365
21
439.5200000000001523
31
0.0000000000000017
0
LINE
330
1
100
AcDbEntity
8
Cut
6
CONTINUOUS
62
5
370
0
100
AcDbLine
10
910.9900000000002365
20
439.5200000000001523
30
0.0000000000000017
11
910.9900000000002365
21
433.0000000000001137
31
0.0000000000000017
0
LINE
330
1
100
AcDbEntity
8
Cut
6
CONTINUOUS
62
5
370
0
100
AcDbLine
10
910.9900000000002365
20
433.0000000000001137
30
0.0000000000000017
11
893.0100000000002183
21
433.0000000000000568
31
0.0000000000000026
0
LINE
330
1
100
AcDbEntity
8
Cut
6
CONTINUOUS
62
5
370
0
100
AcDbLine
10
893.0100000000002183
20
433.0000000000000568
30
0.0000000000000026
11
893.0100000000002183
21
439.5200000000000387
31
0.0000000000000026
0
LINE
330
1
100
AcDbEntity
8
Cut
6
CONTINUOUS
62
5
370
0
100
AcDbLine
10
893.0100000000002183
20
439.5200000000000387
30
0.0000000000000026
11
877.9900000000001228
21
439.5199999999999818
31
0.0000000000000035
0
LINE
330
1
100
AcDbEntity
8
Cut
6
CONTINUOUS
62
5
370
0
100
AcDbLine
10
877.9900000000001228
20
439.5199999999999818
30
0.0000000000000035
11
877.9900000000001228
21
432.9999999999999432
31
0.0000000000000035
0
LINE
330
1
100
AcDbEntity
8
Cut
6
CONTINUOUS
62
5
370
0
100
AcDbLine
10
877.9900000000001228
20
432.9999999999999432
30
0.0000000000000035
11
875.0000000000002274
21
432.9999999999999432
31
0.0000000000000035
0
LINE
330
1
100
AcDbEntity
8
Cut
6
CONTINUOUS
62
5
370
0
100
AcDbLine
10
875.0000000000002274
20
432.9999999999999432
30
0.0000000000000035
11
874.9999999999994316
21
595.0000000000000000
31
0.0000000000000035
0
LINE
330
1
100
AcDbEntity
8
Cut
6
CONTINUOUS
62
5
370
0
100
AcDbLine
10
874.9999999999994316
20
595.0000000000000000
30
0.0000000000000035
11
877.9899999999994407
21
595.0000000000000000
31
0.0000000000000035
0
LINE
330
1
100
AcDbEntity
8
Cut
6
CONTINUOUS
62
5
370
0
100
AcDbLine
10
877.9899999999994407
20
595.0000000000000000
30
0.0000000000000035
11
877.9899999999994407
21
588.4799999999999045
31
0.0000000000000035
0
LINE
330
1
100
AcDbEntity
8
Cut
6
CONTINUOUS
62
5
370
0
100
AcDbLine
10
976.9899999999996680
20
541.4900000000003502
30
-0.0000000000000026
11
976.9899999999996680
21
548.0100000000004457
31
-0.0000000000000026
0
LINE
330
1
100
AcDbEntity
8
Cut
6
CONTINUOUS
62
5
370
0
100
AcDbLine
10
976.9899999999996680
20
548.0100000000004457
30
-0.0000000000000026
11
992.0099999999996498
21
548.0100000000004457
31
-0.0000000000000035
0
LINE
330
1
100
AcDbEntity
8
Cut
6
CONTINUOUS
62
5
370
0
100
AcDbLine
10
992.0099999999996498
20
548.0100000000004457
30
-0.0000000000000035
11
992.0099999999997635
21
541.4900000000004638
31
-0.0000000000000035
0
LINE
330
1
100
AcDbEntity
8
Cut
6
CONTINUOUS
62
5
370
0
100
AcDbLine
10
992.0099999999997635
20
541.4900000000004638
30
-0.0000000000000035
11
976.9899999999996680
21
541.4900000000003502
31
-0.0000000000000026
0
LINE
330
1
100
AcDbEntity
8
Cut
6
CONTINUOUS
62
5
370
0
100
AcDbLine
10
976.9900000000000091
20
479.9900000000004638
30
-0.0000000000000026
11
976.9899999999998954
21
486.5100000000004457
31
-0.0000000000000026
0
LINE
330
1
100
AcDbEntity
8
Cut
6
CONTINUOUS
62
5
370
0
100
AcDbLine
10
976.9899999999998954
20
486.5100000000004457
30
-0.0000000000000026
11
992.0099999999999909
21
486.5100000000005025
31
-0.0000000000000035
0
LINE
330
1
100
AcDbEntity
8
Cut
6
CONTINUOUS
62
5
370
0
100
AcDbLine
10
992.0099999999999909
20
486.5100000000005025
30
-0.0000000000000035
11
992.0099999999999909
21
479.9900000000005207
31
-0.0000000000000035
0
LINE
330
1
100
AcDbEntity
8
Cut
6
CONTINUOUS
62
5
370
0
100
AcDbLine
10
992.0099999999999909
20
479.9900000000005207
30
-0.0000000000000035
11
976.9900000000000091
21
479.9900000000004638
31
-0.0000000000000026
0
LINE
330
1
100
AcDbEntity
8
Cut
6
CONTINUOUS
62
5
370
0
100
AcDbLine
10
959.0099999999996498
20
541.4900000000003502
30
-0.0000000000000017
11
943.9899999999996680
21
541.4900000000002365
31
-0.0000000000000009
0
LINE
330
1
100
AcDbEntity
8
Cut
6
CONTINUOUS
62
5
370
0
100
AcDbLine
10
943.9899999999996680
20
541.4900000000002365
30
-0.0000000000000009
11
943.9899999999996680
21
548.0100000000002183
31
-0.0000000000000009
0
LINE
330
1
100
AcDbEntity
8
Cut
6
CONTINUOUS
62
5
370
0
100
AcDbLine
10
943.9899999999996680
20
548.0100000000002183
30
-0.0000000000000009
11
959.0099999999996498
21
548.0100000000003320
31
-0.0000000000000017
0
LINE
330
1
100
AcDbEntity
8
Cut
6
CONTINUOUS
62
5
370
0
100
AcDbLine
10
959.0099999999996498
20
548.0100000000003320
30
-0.0000000000000017
11
959.0099999999996498
21
541.4900000000003502
31
-0.0000000000000017
0
LINE
330
1
100
AcDbEntity
8
Cut
6
CONTINUOUS
62
5
370
0
100
AcDbLine
10
943.9900000000000091
20
479.9900000000002933
30
-0.0000000000000009
11
943.9900000000000091
21
486.5100000000002751
31
-0.0000000000000009
0
LINE
330
1
100
AcDbEntity
8
Cut
6
CONTINUOUS
62
5
370
0
100
AcDbLine
10
943.9900000000000091
20
486.5100000000002751
30
-0.0000000000000009
11
959.0099999999998772
21
486.5100000000003888
31
-0.0000000000000017
0
LINE
330
1
100
AcDbEntity
8
Cut
6
CONTINUOUS
62
5
370
0
100
AcDbLine
10
959.0099999999998772
20
486.5100000000003888
30
-0.0000000000000017
11
959.0099999999999909
21
479.9900000000003502
31
-0.0000000000000017
0
LINE
330
1
100
AcDbEntity
8
Cut
6
CONTINUOUS
62
5
370
0
100
AcDbLine
10
959.0099999999999909
20
479.9900000000003502
30
-0.0000000000000017
11
943.9900000000000091
21
479.9900000000002933
31
-0.0000000000000009
0
LINE
330
1
100
AcDbEntity
8
Cut
6
CONTINUOUS
62
5
370
0
100
AcDbLine
10
926.0099999999996498
20
541.4900000000001228
30
0.0000000000000009
11
910.9899999999997817
21
541.4900000000001228
31
0.0000000000000017
0
LINE
330
1
100
AcDbEntity
8
Cut
6
CONTINUOUS
62
5
370
0
100
AcDbLine
10
910.9899999999997817
20
541.4900000000001228
30
0.0000000000000017
11
910.9899999999996680
21
548.0100000000001046
31
0.0000000000000017
0
LINE
330
1
100
AcDbEntity
8
Cut
6
CONTINUOUS
62
5
370
0
100
AcDbLine
10
910.9899999999996680
20
548.0100000000001046
30
0.0000000000000017
11
926.0099999999996498
21
548.0100000000002183
31
0.0000000000000009
0
LINE
330
1
100
AcDbEntity
8
Cut
6
CONTINUOUS
62
5
370
0
100
AcDbLine
10
926.0099999999996498
20
548.0100000000002183
30
0.0000000000000009
11
926.0099999999996498
21
541.4900000000001228
31
0.0000000000000009
0
LINE
330
1
100
AcDbEntity
8
Cut
6
CONTINUOUS
62
5
370
0
100
AcDbLine
10
926.0099999999999909
20
479.9900000000001796
30
0.0000000000000009
11
910.9900000000000091
21
479.9900000000001228
31
0.0000000000000017
0
LINE
330
1
100
AcDbEntity
8
Cut
6
CONTINUOUS
62
5
370
0
100
AcDbLine
10
910.9900000000000091
20
479.9900000000001228
30
0.0000000000000017
11
910.9900000000000091
21
486.5100000000001614
31
0.0000000000000017
0
LINE
330
1
100
AcDbEntity
8
Cut
6
CONTINUOUS
62
5
370
0
100
AcDbLine
10
910.9900000000000091
20
486.5100000000001614
30
0.0000000000000017
11
926.0099999999999909
21
486.5100000000002183
31
0.0000000000000009
0
LINE
330
1
100
AcDbEntity
8
Cut
6
CONTINUOUS
62
5
370
0
100
AcDbLine
10
926.0099999999999909
20
486.5100000000002183
30
0.0000000000000009
11
926.0099999999999909
21
479.9900000000001796
31
0.0000000000000009
0
LINE
330
1
100
AcDbEntity
8
Cut
6
CONTINUOUS
62
5
370
0
100
AcDbLine
10
893.0099999999996498
20
541.4900000000000091
30
0.0000000000000026
11
877.9899999999996680
21
541.4899999999998954
31
0.0000000000000035
0
LINE
330
1
100
AcDbEntity
8
Cut
6
CONTINUOUS
62
5
370
0
100
AcDbLine
10
877.9899999999996680
20
541.4899999999998954
30
0.0000000000000035
11
877.9899999999996680
21
548.0099999999999909
31
0.0000000000000035
0
LINE
330
1
100
AcDbEntity
8
Cut
6
CONTINUOUS
62
5
370
0
100
AcDbLine
10
877.9899999999996680
20
548.0099999999999909
30
0.0000000000000035
11
893.0099999999996498
21
548.0099999999999909
31
0.0000000000000026
0
LINE
330
1
100
AcDbEntity
8
Cut
6
CONTINUOUS
62
5
370
0
100
AcDbLine
10
893.0099999999996498
20
548.0099999999999909
30
0.0000000000000026
11
893.0099999999996498
21
541.4900000000000091
31
0.0000000000000026
0
LINE
330
1
100
AcDbEntity
8
Cut
6
CONTINUOUS
62
5
370
0
100
AcDbLine
10
877.9899999999998954
20
479.9899999999999523
30
0.0000000000000035
11
877.9899999999998954
21
486.5099999999999909
31
0.0000000000000035
0
LINE
330
1
100
AcDbEntity
8
Cut
6
CONTINUOUS
62
5
370
0
100
AcDbLine
10
877.9899999999998954
20
486.5099999999999909
30
0.0000000000000035
11
893.0099999999999909
21
486.5100000000000477
31
0.0000000000000026
0
LINE
330
1
100
AcDbEntity
8
Cut
6
CONTINUOUS
62
5
370
0
100
AcDbLine
10
893.0099999999999909
20
486.5100000000000477
30
0.0000000000000026
11
893.0099999999999909
21
479.9900000000000659
31
0.0000000000000026
0
LINE
330
1
100
AcDbEntity
8
Cut
6
CONTINUOUS
62
5
370
0
100
AcDbLine
10
893.0099999999999909
20
479.9900000000000659
30
0.0000000000000026
11
877.9899999999998954
21
479.9899999999999523
31
0.0000000000000035
0
SPLINE
8
Cut
6
CONTINUOUS
62
5
370
0
100
AcDbEntity
100
AcDbSpline
70
0
71
3
72
17
73
13
74
0
40
0.0000000000000000
40
0.0000000000000000
40
0.0000000000000000
40
0.0000000000000000
40
0.0641451213433324
40
0.1681289967496287
40
0.2721128721559252
40
0.3760967475622217
40
0.4800806229685181
40
0.5840644983748142
40
0.6880483737811109
40
0.7920322491874072
40
0.8960161245937037
40
1.0000000000000000
40
1.0000000000000000
40
1.0000000000000000
40
1.0000000000000000
10
898.4999999999997726
20
357.1182394787297198
30
0.0000000000000028
10
898.5302666885770577
20
358.1250380362357078
30
0.0000000000000028
10
898.6095978657402839
20
360.7639297844706334
30
0.0000000000000030
10
899.4180348285785840
20
364.9828767588675191
30
0.0000000000000032
10
901.0747302083490240
20
369.6083178892412207
30
0.0000000000000035
10
903.4734247437503427
20
373.9016562399335157
30
0.0000000000000038
10
906.5351997532573023
20
377.7483470110926191
30
0.0000000000000040
10
910.1825793225766574
20
381.0447505271936848
30
0.0000000000000042
10
914.3173808432281930
20
383.7082846694806904
30
0.0000000000000044
10
918.8298164061073976
20
385.6485705863814815
30
0.0000000000000045
10
923.5996774246614223
20
386.8866567018168894
30
0.0000000000000046
10
926.8665591415535800
20
387.0410452197588711
30
0.0000000000000046
10
928.4999999999996589
20
387.1182394787298335
30
0.0000000000000046
41
1.0000000000000000
41
1.0000000000000000
41
1.0000000000000000
41
1.0000000000000000
41
1.0000000000000000
41
1.0000000000000000
41
1.0000000000000000
41
1.0000000000000000
41
1.0000000000000000
41
1.0000000000000000
41
1.0000000000000000
41
1.0000000000000000
41
1.0000000000000000
0
LINE
330
1
100
AcDbEntity
8
Cut
6
CONTINUOUS
62
5
370
0
100
AcDbLine
10
928.4999999999996589
20
387.1182394787298904
30
0.0000000000000046
11
938.4999999999995453
21
387.1182394787298904
31
0.0000000000000046
0
SPLINE
8
Cut
6
CONTINUOUS
62
5
370
0
100
AcDbEntity
100
AcDbSpline
70
0
71
3
72
17
73
13
74
0
40
0.0000000000000000
40
0.0000000000000000
40
0.0000000000000000
40
0.0000000000000000
40
0.0641451213433324
40
0.1681289967496289
40
0.2721128721559254
40
0.3760967475622216
40
0.4800806229685182
40
0.5840644983748144
40
0.6880483737811107
40
0.7920322491874074
40
0.8960161245937036
40
0.9999999999999999
40
0.9999999999999999
40
0.9999999999999999
40
0.9999999999999999
10
938.4999999999995453
20
387.1182394787298904
30
0.0000000000000046
10
939.5067985575054763
20
387.1485061673072323
30
0.0000000000000046
10
942.1456903057404588
20
387.2278373444704016
30
0.0000000000000046
10
946.3646372801374582
20
388.0362743073088154
30
0.0000000000000046
10
950.9900784105110461
20
389.6929696870792554
30
0.0000000000000048
10
955.2834167612032843
20
392.0916642224806878
30
0.0000000000000049
10
959.1301075323623309
20
395.1534392319877611
30
0.0000000000000051
10
962.4265110484634533
20
398.8008188013069457
30
0.0000000000000053
10
965.0900451907505158
20
402.9356203219585950
30
0.0000000000000056
10
967.0303311076511363
20
407.4480558848379133
30
0.0000000000000058
10
968.2684172230865443
20
412.2179169033918811
30
0.0000000000000061
10
968.4228057410284691
20
415.4847986202839820
30
0.0000000000000063
10
968.4999999999994316
20
417.1182394787300041
30
0.0000000000000064
41
1.0000000000000000
41
1.0000000000000000
41
1.0000000000000000
41
1.0000000000000000
41
1.0000000000000000
41
1.0000000000000000
41
1.0000000000000000
41
1.0000000000000000
41
1.0000000000000000
41
1.0000000000000000
41
1.0000000000000000
41
1.0000000000000000
41
1.0000000000000000
0
LINE
330
1
100
AcDbEntity
8
Cut
6
CONTINUOUS
62
5
370
0
100
AcDbLine
10
968.4999999999994316
20
417.1182394787300041
30
0.0000000000000064
11
968.4999999999994316
21
422.1182394787300609
31
0.0000000000000067
0
SPLINE
8
Cut
6
CONTINUOUS
62
5
370
0
100
AcDbEntity
100
AcDbSpline
70
0
71
3
72
13
73
9
74
0
40
0.0000000000000000
40
0.0000000000000000
40
0.0000000000000000
40
0.0000000000000000
40
0.0991400469650263
40
0.2793120375720212
40
0.4594840281790155
40
0.6396560187860107
40
0.8198280093930053
40
1.0000000000000000
40
1.0000000000000000
40
1.0000000000000000
40
1.0000000000000000
10
968.4999999999994316
20
422.1182394787300609
30
0.0000000000000067
10
968.5241634416348688
20
422.6360488467792038
30
0.0000000000000068
10
968.5922402715793851
20
424.0948981623811846
30
0.0000000000000069
10
969.3311908352471846
20
426.4208889133611819
30
0.0000000000000070
10
970.8894444453078449
20
428.8150357292539070
30
0.0000000000000071
10
973.0644405652089972
20
430.6617830919236667
30
0.0000000000000073
10
975.6691892727361619
20
431.8853535754316795
30
0.0000000000000073
10
977.5563964242450083
20
432.0406108442972481
30
0.0000000000000073
10
978.4999999999993179
20
432.1182394787300609
30
0.0000000000000073
41
1.0000000000000000
41
1.0000000000000000
41
1.0000000000000000
41
1.0000000000000000
41
1.0000000000000000
41
1.0000000000000000
41
1.0000000000000000
41
1.0000000000000000
41
1.0000000000000000
0
LINE
330
1
100
AcDbEntity
8
Cut
6
CONTINUOUS
62
5
370
0
100
AcDbLine
10
978.4999999999993179
20
432.1182394787300609
30
0.0000000000000073
11
988.4999999999994316
21
432.1182394787301178
31
0.0000000000000073
0
LINE
330
1
100
AcDbEntity
8
Cut
6
CONTINUOUS
62
5
370
0
100
AcDbLine
10
988.4999999999994316
20
432.1182394787301178
30
0.0000000000000073
11
988.4999999999994316
21
429.1182394787301178
31
0.0000000000000072
0
LINE
330
1
100
AcDbEntity
8
Cut
6
CONTINUOUS
62
5
370
0
100
AcDbLine
10
988.4999999999994316
20
429.1182394787301178
30
0.0000000000000072
11
993.9999999999994316
21
429.1182394787301746
31
0.0000000000000072
0
LINE
330
1
100
AcDbEntity
8
Cut
6
CONTINUOUS
62
5
370
0
100
AcDbLine
10
993.9999999999994316
20
429.1182394787301746
30
0.0000000000000072
11
994.9999999999994316
21
428.1182394787301746
31
0.0000000000000071
0
LINE
330
1
100
AcDbEntity
8
Cut
6
CONTINUOUS
62
5
370
0
100
AcDbLine
10
994.9999999999994316
20
428.1182394787301746
30
0.0000000000000071
11
994.9999999999994316
21
415.1182394787301746
31
0.0000000000000063
0
LINE
330
1
100
AcDbEntity
8
Cut
6
CONTINUOUS
62
5
370
0
100
AcDbLine
10
994.9999999999994316
20
415.1182394787301746
30
0.0000000000000063
11
993.9999999999994316
21
414.1182394787301746
31
0.0000000000000062
0
LINE
330
1
100
AcDbEntity
8
Cut
6
CONTINUOUS
62
5
370
0
100
AcDbLine
10
993.9999999999994316
20
414.1182394787301746
30
0.0000000000000062
11
988.4999999999995453
21
414.1182394787301178
31
0.0000000000000062
0
LINE
330
1
100
AcDbEntity
8
Cut
6
CONTINUOUS
62
5
370
0
100
AcDbLine
10
988.4999999999995453
20
414.1182394787301178
30
0.0000000000000062
11
988.4999999999995453
21
396.1182394787301746
31
0.0000000000000051
0
LINE
330
1
100
AcDbEntity
8
Cut
6
CONTINUOUS
62
5
370
0
100
AcDbLine
10
988.4999999999995453
20
396.1182394787301746
30
0.0000000000000051
11
993.9999999999995453
21
396.1182394787301746
31
0.0000000000000051
0
LINE
330
1
100
AcDbEntity
8
Cut
6
CONTINUOUS
62
5
370
0
100
AcDbLine
10
993.9999999999995453
20
396.1182394787301746
30
0.0000000000000051
11
994.9999999999995453
21
395.1182394787301746
31
0.0000000000000051
0
LINE
330
1
100
AcDbEntity
8
Cut
6
CONTINUOUS
62
5
370
0
100
AcDbLine
10
994.9999999999995453
20
395.1182394787301746
30
0.0000000000000051
11
994.9999999999996589
21
382.1182394787301178
31
0.0000000000000043
0
LINE
330
1
100
AcDbEntity
8
Cut
6
CONTINUOUS
62
5
370
0
100
AcDbLine
10
994.9999999999996589
20
382.1182394787301178
30
0.0000000000000043
11
993.9999999999996589
21
381.1182394787301178
31
0.0000000000000042
0
LINE
330
1
100
AcDbEntity
8
Cut
6
CONTINUOUS
62
5
370
0
100
AcDbLine
10
993.9999999999996589
20
381.1182394787301178
30
0.0000000000000042
11
988.4999999999995453
21
381.1182394787301178
31
0.0000000000000042
0
LINE
330
1
100
AcDbEntity
8
Cut
6
CONTINUOUS
62
5
370
0
100
AcDbLine
10
988.4999999999995453
20
381.1182394787301178
30
0.0000000000000042
11
988.4999999999996589
21
363.1182394787301178
31
0.0000000000000031
0
LINE
330
1
100
AcDbEntity
8
Cut
6
CONTINUOUS
62
5
370
0
100
AcDbLine
10
988.4999999999996589
20
363.1182394787301178
30
0.0000000000000031
11
993.9999999999996589
21
363.1182394787301178
31
0.0000000000000031
0
LINE
330
1
100
AcDbEntity
8
Cut
6
CONTINUOUS
62
5
370
0
100
AcDbLine
10
993.9999999999996589
20
363.1182394787301178
30
0.0000000000000031
11
994.9999999999996589
21
362.1182394787301178
31
0.0000000000000031
0
LINE
330
1
100
AcDbEntity
8
Cut
6
CONTINUOUS
62
5
370
0
100
AcDbLine
10
994.9999999999996589
20
362.1182394787301178
30
0.0000000000000031
11
994.9999999999997726
21
349.1182394787301746
31
0.0000000000000023
0
LINE
330
1
100
AcDbEntity
8
Cut
6
CONTINUOUS
62
5
370
0
100
AcDbLine
10
994.9999999999997726
20
349.1182394787301746
30
0.0000000000000023
11
993.9999999999997726
21
348.1182394787301746
31
0.0000000000000022
0
LINE
330
1
100
AcDbEntity
8
Cut
6
CONTINUOUS
62
5
370
0
100
AcDbLine
10
993.9999999999997726
20
348.1182394787301746
30
0.0000000000000022
11
988.4999999999997726
21
348.1182394787301178
31
0.0000000000000022
0
LINE
330
1
100
AcDbEntity
8
Cut
6
CONTINUOUS
62
5
370
0
100
AcDbLine
10
988.4999999999997726
20
348.1182394787301178
30
0.0000000000000022
11
988.4999999999997726
21
330.1182394787301178
31
0.0000000000000011
0
LINE
330
1
100
AcDbEntity
8
Cut
6
CONTINUOUS
62
5
370
0
100
AcDbLine
10
988.4999999999997726
20
330.1182394787301178
30
0.0000000000000011
11
993.9999999999998863
21
330.1182394787301746
31
0.0000000000000011
0
LINE
330
1
100
AcDbEntity
8
Cut
6
CONTINUOUS
62
5
370
0
100
AcDbLine
10
993.9999999999998863
20
330.1182394787301746
30
0.0000000000000011
11
994.9999999999998863
21
329.1182394787301178
31
0.0000000000000010
0
LINE
330
1
100
AcDbEntity
8
Cut
6
CONTINUOUS
62
5
370
0
100
AcDbLine
10
994.9999999999998863
20
329.1182394787301178
30
0.0000000000000010
11
994.9999999999998863
21
316.1182394787301178
31
0.0000000000000002
0
LINE
330
1
100
AcDbEntity
8
Cut
6
CONTINUOUS
62
5
370
0
100
AcDbLine
10
994.9999999999998863
20
316.1182394787301178
30
0.0000000000000002
11
993.9999999999998863
21
315.1182394787301178
31
0.0000000000000002
0
LINE
330
1
100
AcDbEntity
8
Cut
6
CONTINUOUS
62
5
370
0
100
AcDbLine
10
993.9999999999998863
20
315.1182394787301178
30
0.0000000000000002
11
988.4999999999998863
21
315.1182394787301178
31
0.0000000000000002
0
LINE
330
1
100
AcDbEntity
8
Cut
6
CONTINUOUS
62
5
370
0
100
AcDbLine
10
988.4999999999998863
20
315.1182394787301178
30
0.0000000000000002
11
988.4999999999998863
21
312.1182394787301178
31
0.0000000000000000
0
LINE
330
1
100
AcDbEntity
8
Cut
6
CONTINUOUS
62
5
370
0
100
AcDbLine
10
988.4999999999998863
20
312.1182394787301178
30
0.0000000000000000
11
928.5000000000000000
21
312.1182394787298335
31
0.0000000000000000
0
SPLINE
8
Cut
6
CONTINUOUS
62
5
370
0
100
AcDbEntity
100
AcDbSpline
70
0
71
3
72
17
73
13
74
0
40
0.0000000000000000
40
0.0000000000000000
40
0.0000000000000000
40
0.0000000000000000
40
0.0641451213433325
40
0.1681289967496290
40
0.2721128721559252
40
0.3760967475622217
40
0.4800806229685179
40
0.5840644983748144
40
0.6880483737811108
40
0.7920322491874072
40
0.8960161245937036
40
1.0000000000000000
40
1.0000000000000000
40
1.0000000000000000
40
1.0000000000000000
10
928.5000000000000000
20
312.1182394787298335
30
0.0000000000000000
10
927.4932014424940689
20
312.1485061673071755
30
0.0000000000000000
10
924.8543096942590864
20
312.2278373444703448
30
0.0000000000000000
10
920.6353627198620870
20
313.0362743073087017
30
0.0000000000000001
10
916.0099215894884992
20
314.6929696870790849
30
0.0000000000000002
10
911.7165832387961473
20
317.0916642224805173
30
0.0000000000000003
10
907.8698924676371007
20
320.1534392319874769
30
0.0000000000000005
10
904.5734889515359782
20
323.8008188013067183
30
0.0000000000000007
10
901.9099548092489158
20
327.9356203219583676
30
0.0000000000000010
10
899.9696688923481815
20
332.4480558848375722
30
0.0000000000000012
10
898.7315827769126599
20
337.2179169033915969
30
0.0000000000000015
10
898.5771942589707351
20
340.4847986202836978
30
0.0000000000000017
10
898.4999999999997726
20
342.1182394787297198
30
0.0000000000000018
41
1.0000000000000000
41
1.0000000000000000
41
1.0000000000000000
41
1.0000000000000000
41
1.0000000000000000
41
1.0000000000000000
41
1.0000000000000000
41
1.0000000000000000
41
1.0000000000000000
41
1.0000000000000000
41
1.0000000000000000
41
1.0000000000000000
41
1.0000000000000000
0
LINE
330
1
100
AcDbEntity
8
Cut
6
CONTINUOUS
62
5
370
0
100
AcDbLine
10
898.4999999999998863
20
342.1182394787297198
30
0.0000000000000018
11
898.4999999999997726
21
357.1182394787297198
31
0.0000000000000028
0
CIRCLE
8
Cut
6
CONTINUOUS
62
5
370
0
100
AcDbEntity
100
AcDbCircle
10
928.4997494771591846
20
357.1181373517650854
30
0.0000000000000028
40
4.1998978805070193
0
LINE
330
1
100
AcDbEntity
8
Cut
6
CONTINUOUS
62
5
370
0
100
AcDbLine
10
934.9704144599890014
20
315.1082394787298426
30
0.0000000000000002
11
934.9704144599890014
21
323.1282394787298813
31
0.0000000000000007
0
LINE
330
1
100
AcDbEntity
8
Cut
6
CONTINUOUS
62
5
370
0
100
AcDbLine
10
934.9704144599890014
20
323.1282394787298813
30
0.0000000000000007
11
941.4904144599889833
21
323.1282394787298813
31
0.0000000000000007
0
LINE
330
1
100
AcDbEntity
8
Cut
6
CONTINUOUS
62
5
370
0
100
AcDbLine
10
941.4904144599889833
20
323.1282394787298813
30
0.0000000000000007
11
941.4904144599889833
21
315.1082394787298995
31
0.0000000000000002
0
LINE
330
1
100
AcDbEntity
8
Cut
6
CONTINUOUS
62
5
370
0
100
AcDbLine
10
941.4904144599889833
20
315.1082394787298995
30
0.0000000000000002
11
934.9704144599890014
21
315.1082394787298426
31
0.0000000000000002
0
LINE
330
1
100
AcDbEntity
8
Cut
6
CONTINUOUS
62
5
370
0
100
AcDbLine
10
934.9704144599888878
20
327.1082394787298426
30
0.0000000000000009
11
934.9704144599888878
21
335.1282394787298244
31
0.0000000000000014
0
LINE
330
1
100
AcDbEntity
8
Cut
6
CONTINUOUS
62
5
370
0
100
AcDbLine
10
934.9704144599888878
20
335.1282394787298244
30
0.0000000000000014
11
941.4904144599888696
21
335.1282394787298813
31
0.0000000000000014
0
LINE
330
1
100
AcDbEntity
8
Cut
6
CONTINUOUS
62
5
370
0
100
AcDbLine
10
941.4904144599888696
20
335.1282394787298813
30
0.0000000000000014
11
941.4904144599889833
21
327.1082394787298426
31
0.0000000000000009
0
LINE
330
1
100
AcDbEntity
8
Cut
6
CONTINUOUS
62
5
370
0
100
AcDbLine
10
941.4904144599889833
20
327.1082394787298426
30
0.0000000000000009
11
934.9704144599888878
21
327.1082394787298426
31
0.0000000000000009
0
LINE
330
1
100
AcDbEntity
8
Cut
6
CONTINUOUS
62
5
370
0
100
AcDbLine
10
933.0863400058551633
20
345.0271237563971454
30
0.0000000000000020
11
939.2300164396693845
21
350.1822803860831641
31
0.0000000000000023
0
LINE
330
1
100
AcDbEntity
8
Cut
6
CONTINUOUS
62
5
370
0
100
AcDbLine
10
939.2300164396693845
20
350.1822803860831641
30
0.0000000000000023
11
943.4209916548255705
21
345.1876706169474573
31
0.0000000000000020
0
LINE
330
1
100
AcDbEntity
8
Cut
6
CONTINUOUS
62
5
370
0
100
AcDbLine
10
943.4209916548255705
20
345.1876706169474573
30
0.0000000000000020
11
937.2773152210114631
21
340.0325139872614386
31
0.0000000000000017
0
LINE
330
1
100
AcDbEntity
8
Cut
6
CONTINUOUS
62
5
370
0
100
AcDbLine
10
937.2773152210114631
20
340.0325139872614386
30
0.0000000000000017
11
933.0863400058551633
21
345.0271237563971454
31
0.0000000000000020
0
LINE
330
1
100
AcDbEntity
8
Cut
6
CONTINUOUS
62
5
370
0
100
AcDbLine
10
949.5340263109151238
20
350.3171157422460169
30
0.0000000000000023
11
945.3430510957589377
21
355.3117255113817237
31
0.0000000000000026
0
LINE
330
1
100
AcDbEntity
8
Cut
6
CONTINUOUS
62
5
370
0
100
AcDbLine
10
945.3430510957589377
20
355.3117255113817805
30
0.0000000000000026
11
951.4867275295730451
21
360.4668821410677992
31
0.0000000000000030
0
LINE
330
1
100
AcDbEntity
8
Cut
6
CONTINUOUS
62
5
370
0
100
AcDbLine
10
951.4867275295730451
20
360.4668821410677992
30
0.0000000000000030
11
955.6777027447293449
21
355.4722723719320925
31
0.0000000000000027
0
LINE
330
1
100
AcDbEntity
8
Cut
6
CONTINUOUS
62
5
370
0
100
AcDbLine
10
955.6777027447293449
20
355.4722723719320925
30
0.0000000000000027
11
949.5340263109151238
21
350.3171157422460169
31
0.0000000000000023
0
LINE
330
1
100
AcDbEntity
8
Cut
6
CONTINUOUS
62
5
370
0
100
AcDbLine
10
919.9463881490733002
20
373.1636136796525420
30
0.0000000000000037
11
924.1373633642294863
21
368.1690039105168921
31
0.0000000000000034
0
LINE
330
1
100
AcDbEntity
8
Cut
6
CONTINUOUS
62
5
370
0
100
AcDbLine
10
924.1373633642294863
20
368.1690039105168921
30
0.0000000000000034
11
917.9936869304152651
21
363.0138472808308165
31
0.0000000000000031
0
LINE
330
1
100
AcDbEntity
8
Cut
6
CONTINUOUS
62
5
370
0
100
AcDbLine
10
917.9936869304152651
20
363.0138472808308165
30
0.0000000000000031
11
913.8027117152590790
21
368.0084570499665233
31
0.0000000000000034
0
LINE
330
1
100
AcDbEntity
8
Cut
6
CONTINUOUS
62
5
370
0
100
AcDbLine
10
913.8027117152590790
20
368.0084570499665233
30
0.0000000000000034
11
919.9463881490733002
21
373.1636136796525420
31
0.0000000000000037
0
LINE
330
1
100
AcDbEntity
8
Cut
6
CONTINUOUS
62
5
370
0
100
AcDbLine
10
936.3940744541331469
20
378.4536056655014704
30
0.0000000000000041
11
930.2503980203189258
21
373.2984490358154517
31
0.0000000000000037
0
LINE
330
1
100
AcDbEntity
8
Cut
6
CONTINUOUS
62
5
370
0
100
AcDbLine
10
930.2503980203189258
20
373.2984490358154517
30
0.0000000000000037
11
926.0594228051627397
21
378.2930588049511584
31
0.0000000000000041
0
LINE
330
1
100
AcDbEntity
8
Cut
6
CONTINUOUS
62
5
370
0
100
AcDbLine
10
926.0594228051627397
20
378.2930588049511584
30
0.0000000000000041
11
932.2030992389769608
21
383.4482154346371772
31
0.0000000000000044
0
LINE
330
1
100
AcDbEntity
8
Cut
6
CONTINUOUS
62
5
370
0
100
AcDbLine
10
932.2030992389769608
20
383.4482154346371772
30
0.0000000000000044
11
936.3940744541331469
21
378.4536056655014704
31
0.0000000000000041
0
SPLINE
8
Cut
6
CONTINUOUS
62
5
370
0
100
AcDbEntity
100
AcDbSpline
70
0
71
3
72
17
73
13
74
0
40
0.0000000000000000
40
0.0000000000000000
40
0.0000000000000000
40
0.0000000000000000
40
0.0641451213433324
40
0.1681289967496287
40
0.2721128721559252
40
0.3760967475622217
40
0.4800806229685181
40
0.5840644983748142
40
0.6880483737811109
40
0.7920322491874072
40
0.8960161245937037
40
1.0000000000000000
40
1.0000000000000000
40
1.0000000000000000
40
1.0000000000000000
10
898.4999999999998863
20
236.1182394787296630
30
0.0000000000000028
10
898.5302666885771714
20
237.1250380362356225
30
0.0000000000000028
10
898.6095978657403975
20
239.7639297844705766
30
0.0000000000000030
10
899.4180348285786977
20
243.9828767588675191
30
0.0000000000000032
10
901.0747302083490240
20
248.6083178892411922
30
0.0000000000000035
10
903.4734247437505701
20
252.9016562399334305
30
0.0000000000000038
10
906.5351997532574160
20
256.7483470110925623
30
0.0000000000000040
10
910.1825793225767711
20
260.0447505271936848
30
0.0000000000000042
10
914.3173808432283067
20
262.7082846694806335
30
0.0000000000000044
10
918.8298164061075113
20
264.6485705863814815
30
0.0000000000000045
10
923.5996774246615360
20
265.8866567018168894
30
0.0000000000000046
10
926.8665591415536937
20
266.0410452197588143
30
0.0000000000000046
10
928.4999999999996589
20
266.1182394787298335
30
0.0000000000000046
41
1.0000000000000000
41
1.0000000000000000
41
1.0000000000000000
41
1.0000000000000000
41
1.0000000000000000
41
1.0000000000000000
41
1.0000000000000000
41
1.0000000000000000
41
1.0000000000000000
41
1.0000000000000000
41
1.0000000000000000
41
1.0000000000000000
41
1.0000000000000000
0
LINE
330
1
100
AcDbEntity
8
Cut
6
CONTINUOUS
62
5
370
0
100
AcDbLine
10
928.4999999999996589
20
266.1182394787298335
30
0.0000000000000046
11
938.4999999999996589
21
266.1182394787298904
31
0.0000000000000046
0
SPLINE
8
Cut
6
CONTINUOUS
62
5
370
0
100
AcDbEntity
100
AcDbSpline
70
0
71
3
72
17
73
13
74
0
40
0.0000000000000000
40
0.0000000000000000
40
0.0000000000000000
40
0.0000000000000000
40
0.0641451213433324
40
0.1681289967496289
40
0.2721128721559254
40
0.3760967475622216
40
0.4800806229685182
40
0.5840644983748144
40
0.6880483737811107
40
0.7920322491874074
40
0.8960161245937036
40
0.9999999999999999
40
0.9999999999999999
40
0.9999999999999999
40
0.9999999999999999
10
938.4999999999996589
20
266.1182394787298904
30
0.0000000000000046
10
939.5067985575055900
20
266.1485061673071755
30
0.0000000000000046
10
942.1456903057405725
20
266.2278373444703448
30
0.0000000000000046
10
946.3646372801375719
20
267.0362743073087586
30
0.0000000000000046
10
950.9900784105111597
20
268.6929696870792554
30
0.0000000000000048
10
955.2834167612033980
20
271.0916642224806310
30
0.0000000000000049
10
959.1301075323624445
20
274.1534392319877043
30
0.0000000000000051
10
962.4265110484635670
20
277.8008188013068889
30
0.0000000000000053
10
965.0900451907506294
20
281.9356203219586519
30
0.0000000000000056
10
967.0303311076512500
20
286.4480558848378564
30
0.0000000000000058
10
968.2684172230866579
20
291.2179169033918242
30
0.0000000000000061
10
968.4228057410285828
20
294.4847986202839252
30
0.0000000000000063
10
968.4999999999995453
20
296.1182394787300041
30
0.0000000000000064
41
1.0000000000000000
41
1.0000000000000000
41
1.0000000000000000
41
1.0000000000000000
41
1.0000000000000000
41
1.0000000000000000
41
1.0000000000000000
41
1.0000000000000000
41
1.0000000000000000
41
1.0000000000000000
41
1.0000000000000000
41
1.0000000000000000
41
1.0000000000000000
0
LINE
330
1
100
AcDbEntity
8
Cut
6
CONTINUOUS
62
5
370
0
100
AcDbLine
10
968.4999999999995453
20
296.1182394787300041
30
0.0000000000000064
11
968.4999999999995453
21
301.1182394787300041
31
0.0000000000000067
0
SPLINE
8
Cut
6
CONTINUOUS
62
5
370
0
100
AcDbEntity
100
AcDbSpline
70
0
71
3
72
13
73
9
74
0
40
0.0000000000000000
40
0.0000000000000000
40
0.0000000000000000
40
0.0000000000000000
40
0.0991400469650263
40
0.2793120375720212
40
0.4594840281790155
40
0.6396560187860107
40
0.8198280093930053
40
1.0000000000000000
40
1.0000000000000000
40
1.0000000000000000
40
1.0000000000000000
10
968.4999999999995453
20
301.1182394787300041
30
0.0000000000000067
10
968.5241634416349825
20
301.6360488467791470
30
0.0000000000000068
10
968.5922402715794988
20
303.0948981623811278
30
0.0000000000000069
10
969.3311908352472983
20
305.4208889133611251
30
0.0000000000000070
10
970.8894444453079586
20
307.8150357292538501
30
0.0000000000000071
10
973.0644405652091109
20
309.6617830919236667
30
0.0000000000000073
10
975.6691892727362756
20
310.8853535754316795
30
0.0000000000000073
10
977.5563964242451220
20
311.0406108442972481
30
0.0000000000000073
10
978.4999999999994316
20
311.1182394787300609
30
0.0000000000000073
41
1.0000000000000000
41
1.0000000000000000
41
1.0000000000000000
41
1.0000000000000000
41
1.0000000000000000
41
1.0000000000000000
41
1.0000000000000000
41
1.0000000000000000
41
1.0000000000000000
0
LINE
330
1
100
AcDbEntity
8
Cut
6
CONTINUOUS
62
5
370
0
100
AcDbLine
10
978.4999999999994316
20
311.1182394787300609
30
0.0000000000000073
11
988.4999999999995453
21
311.1182394787300609
31
0.0000000000000073
0
LINE
330
1
100
AcDbEntity
8
Cut
6
CONTINUOUS
62
5
370
0
100
AcDbLine
10
988.4999999999995453
20
311.1182394787300609
30
0.0000000000000073
11
988.4999999999995453
21
308.1182394787300609
31
0.0000000000000072
0
LINE
330
1
100
AcDbEntity
8
Cut
6
CONTINUOUS
62
5
370
0
100
AcDbLine
10
988.4999999999995453
20
308.1182394787300609
30
0.0000000000000072
11
993.9999999999995453
21
308.1182394787301178
31
0.0000000000000072
0
LINE
330
1
100
AcDbEntity
8
Cut
6
CONTINUOUS
62
5
370
0
100
AcDbLine
10
993.9999999999995453
20
308.1182394787301178
30
0.0000000000000072
11
994.9999999999995453
21
307.1182394787301178
31
0.0000000000000071
0
LINE
330
1
100
AcDbEntity
8
Cut
6
CONTINUOUS
62
5
370
0
100
AcDbLine
10
994.9999999999995453
20
307.1182394787301178
30
0.0000000000000071
11
994.9999999999995453
21
294.1182394787301178
31
0.0000000000000063
0
LINE
330
1
100
AcDbEntity
8
Cut
6
CONTINUOUS
62
5
370
0
100
AcDbLine
10
994.9999999999995453
20
294.1182394787301178
30
0.0000000000000063
11
993.9999999999995453
21
293.1182394787301178
31
0.0000000000000062
0
LINE
330
1
100
AcDbEntity
8
Cut
6
CONTINUOUS
62
5
370
0
100
AcDbLine
10
993.9999999999995453
20
293.1182394787301178
30
0.0000000000000062
11
988.4999999999995453
21
293.1182394787301178
31
0.0000000000000062
0
LINE
330
1
100
AcDbEntity
8
Cut
6
CONTINUOUS
62
5
370
0
100
AcDbLine
10
988.4999999999995453
20
293.1182394787301178
30
0.0000000000000062
11
988.4999999999996589
21
275.1182394787301178
31
0.0000000000000051
0
LINE
330
1
100
AcDbEntity
8
Cut
6
CONTINUOUS
62
5
370
0
100
AcDbLine
10
988.4999999999996589
20
275.1182394787301178
30
0.0000000000000051
11
993.9999999999996589
21
275.1182394787301746
31
0.0000000000000051
0
LINE
330
1
100
AcDbEntity
8
Cut
6
CONTINUOUS
62
5
370
0
100
AcDbLine
10
993.9999999999996589
20
275.1182394787301746
30
0.0000000000000051
11
994.9999999999996589
21
274.1182394787301746
31
0.0000000000000051
0
LINE
330
1
100
AcDbEntity
8
Cut
6
CONTINUOUS
62
5
370
0
100
AcDbLine
10
994.9999999999996589
20
274.1182394787301746
30
0.0000000000000051
11
994.9999999999997726
21
261.1182394787301178
31
0.0000000000000043
0
LINE
330
1
100
AcDbEntity
8
Cut
6
CONTINUOUS
62
5
370
0
100
AcDbLine
10
994.9999999999997726
20
261.1182394787301178
30
0.0000000000000043
11
993.9999999999997726
21
260.1182394787301178
31
0.0000000000000042
0
LINE
330
1
100
AcDbEntity
8
Cut
6
CONTINUOUS
62
5
370
0
100
AcDbLine
10
993.9999999999997726
20
260.1182394787301178
30
0.0000000000000042
11
988.4999999999996589
21
260.1182394787300609
31
0.0000000000000042
0
LINE
330
1
100
AcDbEntity
8
Cut
6
CONTINUOUS
62
5
370
0
100
AcDbLine
10
988.4999999999996589
20
260.1182394787300609
30
0.0000000000000042
11
988.4999999999997726
21
242.1182394787300893
31
0.0000000000000031
0
LINE
330
1
100
AcDbEntity
8
Cut
6
CONTINUOUS
62
5
370
0
100
AcDbLine
10
988.4999999999997726
20
242.1182394787300893
30
0.0000000000000031
11
993.9999999999997726
21
242.1182394787301178
31
0.0000000000000031
0
LINE
330
1
100
AcDbEntity
8
Cut
6
CONTINUOUS
62
5
370
0
100
AcDbLine
10
993.9999999999997726
20
242.1182394787301178
30
0.0000000000000031
11
994.9999999999997726
21
241.1182394787301178
31
0.0000000000000031
0
LINE
330
1
100
AcDbEntity
8
Cut
6
CONTINUOUS
62
5
370
0
100
AcDbLine
10
994.9999999999997726
20
241.1182394787301178
30
0.0000000000000031
11
994.9999999999998863
21
228.1182394787301178
31
0.0000000000000023
0
LINE
330
1
100
AcDbEntity
8
Cut
6
CONTINUOUS
62
5
370
0
100
AcDbLine
10
994.9999999999998863
20
228.1182394787301178
30
0.0000000000000023
11
993.9999999999998863
21
227.1182394787301178
31
0.0000000000000022
0
LINE
330
1
100
AcDbEntity
8
Cut
6
CONTINUOUS
62
5
370
0
100
AcDbLine
10
993.9999999999998863
20
227.1182394787301178
30
0.0000000000000022
11
988.4999999999998863
21
227.1182394787301178
31
0.0000000000000022
0
LINE
330
1
100
AcDbEntity
8
Cut
6
CONTINUOUS
62
5
370
0
100
AcDbLine
10
988.4999999999998863
20
227.1182394787301178
30
0.0000000000000022
11
988.4999999999998863
21
209.1182394787300893
31
0.0000000000000011
0
LINE
330
1
100
AcDbEntity
8
Cut
6
CONTINUOUS
62
5
370
0
100
AcDbLine
10
988.4999999999998863
20
209.1182394787300893
30
0.0000000000000011
11
994.0000000000000000
21
209.1182394787301178
31
0.0000000000000011
0
LINE
330
1
100
AcDbEntity
8
Cut
6
CONTINUOUS
62
5
370
0
100
AcDbLine
10
994.0000000000000000
20
209.1182394787301178
30
0.0000000000000011
11
995.0000000000000000
21
208.1182394787301178
31
0.0000000000000010
0
LINE
330
1
100
AcDbEntity
8
Cut
6
CONTINUOUS
62
5
370
0
100
AcDbLine
10
995.0000000000000000
20
208.1182394787301178
30
0.0000000000000010
11
995.0000000000000000
21
195.1182394787301462
31
0.0000000000000002
0
LINE
330
1
100
AcDbEntity
8
Cut
6
CONTINUOUS
62
5
370
0
100
AcDbLine
10
995.0000000000000000
20
195.1182394787301462
30
0.0000000000000002
11
994.0000000000000000
21
194.1182394787301178
31
0.0000000000000002
0
LINE
330
1
100
AcDbEntity
8
Cut
6
CONTINUOUS
62
5
370
0
100
AcDbLine
10
994.0000000000000000
20
194.1182394787301178
30
0.0000000000000002
11
988.5000000000000000
21
194.1182394787300893
31
0.0000000000000002
0
LINE
330
1
100
AcDbEntity
8
Cut
6
CONTINUOUS
62
5
370
0
100
AcDbLine
10
988.5000000000000000
20
194.1182394787300893
30
0.0000000000000002
11
988.5000000000000000
21
191.1182394787301178
31
0.0000000000000000
0
LINE
330
1
100
AcDbEntity
8
Cut
6
CONTINUOUS
62
5
370
0
100
AcDbLine
10
988.5000000000000000
20
191.1182394787301178
30
0.0000000000000000
11
928.5000000000001137
21
191.1182394787298335
31
0.0000000000000000
0
SPLINE
8
Cut
6
CONTINUOUS
62
5
370
0
100
AcDbEntity
100
AcDbSpline
70
0
71
3
72
17
73
13
74
0
40
0.0000000000000000
40
0.0000000000000000
40
0.0000000000000000
40
0.0000000000000000
40
0.0641451213433325
40
0.1681289967496290
40
0.2721128721559252
40
0.3760967475622217
40
0.4800806229685179
40
0.5840644983748144
40
0.6880483737811108
40
0.7920322491874072
40
0.8960161245937036
40
1.0000000000000000
40
1.0000000000000000
40
1.0000000000000000
40
1.0000000000000000
10
928.5000000000001137
20
191.1182394787298335
30
0.0000000000000000
10
927.4932014424941826
20
191.1485061673071755
30
0.0000000000000000
10
924.8543096942592001
20
191.2278373444703163
30
0.0000000000000000
10
920.6353627198622007
20
192.0362743073086449
30
0.0000000000000001
10
916.0099215894886129
20
193.6929696870790849
30
0.0000000000000002
10
911.7165832387962610
20
196.0916642224805173
30
0.0000000000000003
10
907.8698924676372144
20
199.1534392319874485
30
0.0000000000000005
10
904.5734889515360919
20
202.8008188013067183
30
0.0000000000000007
10
901.9099548092490295
20
206.9356203219583392
30
0.0000000000000010
10
899.9696688923482952
20
211.4480558848375154
30
0.0000000000000012
10
898.7315827769127736
20
216.2179169033915684
30
0.0000000000000015
10
898.5771942589708488
20
219.4847986202836694
30
0.0000000000000017
10
898.4999999999998863
20
221.1182394787296914
30
0.0000000000000018
41
1.0000000000000000
41
1.0000000000000000
41
1.0000000000000000
41
1.0000000000000000
41
1.0000000000000000
41
1.0000000000000000
41
1.0000000000000000
41
1.0000000000000000
41
1.0000000000000000
41
1.0000000000000000
41
1.0000000000000000
41
1.0000000000000000
41
1.0000000000000000
0
LINE
330
1
100
AcDbEntity
8
Cut
6
CONTINUOUS
62
5
370
0
100
AcDbLine
10
898.4999999999998863
20
221.1182394787296914
30
0.0000000000000018
11
898.4999999999998863
21
236.1182394787296630
31
0.0000000000000028
0
CIRCLE
8
Cut
6
CONTINUOUS
62
5
370
0
100
AcDbEntity
100
AcDbCircle
10
928.4997494771592983
20
236.1181373517650286
30
0.0000000000000028
40
4.1998978805070193
0
LINE
330
1
100
AcDbEntity
8
Cut
6
CONTINUOUS
62
5
370
0
100
AcDbLine
10
938.8676955262171759
20
223.8989393887236190
30
0.0000000000000020
11
934.6109127034741277
21
219.6421565659805708
31
0.0000000000000017
0
LINE
330
1
100
AcDbEntity
8
Cut
6
CONTINUOUS
62
5
370
0
100
AcDbLine
10
934.6109127034741277
20
219.6421565659805708
30
0.0000000000000017
11
930.0005764901377461
21
224.2524927793168388
31
0.0000000000000020
0
LINE
330
1
100
AcDbEntity
8
Cut
6
CONTINUOUS
62
5
370
0
100
AcDbLine
10
930.0005764901377461
20
224.2524927793168388
30
0.0000000000000020
11
934.2573593128807943
21
228.5092756020598870
31
0.0000000000000023
0
LINE
330
1
100
AcDbEntity
8
Cut
6
CONTINUOUS
62
5
370
0
100
AcDbLine
10
934.2573593128807943
20
228.5092756020598870
30
0.0000000000000023
11
938.8676955262171759
21
223.8989393887236190
31
0.0000000000000020
0
LINE
330
1
100
AcDbEntity
8
Cut
6
CONTINUOUS
62
5
370
0
100
AcDbLine
10
918.3474567361831760
20
250.0760324282494480
30
0.0000000000000036
11
922.9577929495196713
21
245.4656962149131800
31
0.0000000000000033
0
LINE
330
1
100
AcDbEntity
8
Cut
6
CONTINUOUS
62
5
370
0
100
AcDbLine
10
922.9577929495196713
20
245.4656962149131800
30
0.0000000000000033
11
915.8725830020304102
21
238.3804862674239189
31
0.0000000000000029
0
LINE
330
1
100
AcDbEntity
8
Cut
6
CONTINUOUS
62
5
370
0
100
AcDbLine
10
915.8725830020304102
20
238.3804862674239189
30
0.0000000000000029
11
911.2622467886941422
21
242.9908224807601584
31
0.0000000000000032
0
LINE
330
1
100
AcDbEntity
8
Cut
6
CONTINUOUS
62
5
370
0
100
AcDbLine
10
911.2622467886941422
20
242.9908224807601584
30
0.0000000000000032
11
918.3474567361831760
21
250.0760324282494480
31
0.0000000000000036
0
LINE
330
1
100
AcDbEntity
8
Cut
6
CONTINUOUS
62
5
370
0
100
AcDbLine
10
946.2640324574281294
20
240.5159487466075348
30
0.0000000000000030
11
950.5208152801711776
21
244.7727315693505830
31
0.0000000000000033
0
LINE
330
1
100
AcDbEntity
8
Cut
6
CONTINUOUS
62
5
370
0
100
AcDbLine
10
950.5208152801711776
20
244.7727315693505830
30
0.0000000000000033
11
955.1311514935074456
21
240.1623953560143718
31
0.0000000000000030
0
LINE
330
1
100
AcDbEntity
8
Cut
6
CONTINUOUS
62
5
370
0
100
AcDbLine
10
955.1311514935074456
20
240.1623953560143718
30
0.0000000000000030
11
950.8743686707646248
21
235.9056125332712952
31
0.0000000000000027
0
LINE
330
1
100
AcDbEntity
8
Cut
6
CONTINUOUS
62
5
370
0
100
AcDbLine
10
950.8743686707646248
20
235.9056125332712952
30
0.0000000000000027
11
946.2640324574281294
21
240.5159487466075348
31
0.0000000000000030
0
LINE
330
1
100
AcDbEntity
8
Cut
6
CONTINUOUS
62
5
370
0
100
AcDbLine
10
936.3928217920638417
20
258.9007250574576346
30
0.0000000000000042
11
929.3076118445746943
21
251.8155151099684019
31
0.0000000000000037
0
LINE
330
1
100
AcDbEntity
8
Cut
6
CONTINUOUS
62
5
370
0
100
AcDbLine
10
929.3076118445746943
20
251.8155151099684019
30
0.0000000000000037
11
924.6972756312384263
21
256.4258513233046415
31
0.0000000000000040
0
LINE
330
1
100
AcDbEntity
8
Cut
6
CONTINUOUS
62
5
370
0
100
AcDbLine
10
924.6972756312384263
20
256.4258513233046415
30
0.0000000000000040
11
931.7824855787275737
21
263.5110612707939595
31
0.0000000000000044
0
LINE
330
1
100
AcDbEntity
8
Cut
6
CONTINUOUS
62
5
370
0
100
AcDbLine
10
931.7824855787275737
20
263.5110612707939595
30
0.0000000000000044
11
936.3928217920638417
21
258.9007250574576346
31
0.0000000000000042
0
LINE
330
1
100
AcDbEntity
8
Cut
6
CONTINUOUS
62
5
370
0
100
AcDbLine
10
993.9999999999995453
20
187.1182394787301462
30
0.0000000000000072
11
994.9999999999995453
21
186.1182394787301462
31
0.0000000000000071
0
LINE
330
1
100
AcDbEntity
8
Cut
6
CONTINUOUS
62
5
370
0
100
AcDbLine
10
994.9999999999995453
20
186.1182394787301462
30
0.0000000000000071
11
994.9999999999995453
21
173.1182394787301746
31
0.0000000000000063
0
LINE
330
1
100
AcDbEntity
8
Cut
6
CONTINUOUS
62
5
370
0
100
AcDbLine
10
994.9999999999995453
20
173.1182394787301746
30
0.0000000000000063
11
993.9999999999995453
21
172.1182394787301746
31
0.0000000000000062
0
LINE
330
1
100
AcDbEntity
8
Cut
6
CONTINUOUS
62
5
370
0
100
AcDbLine
10
993.9999999999995453
20
172.1182394787301746
30
0.0000000000000062
11
988.4999999999995453
21
172.1182394787301178
31
0.0000000000000062
0
LINE
330
1
100
AcDbEntity
8
Cut
6
CONTINUOUS
62
5
370
0
100
AcDbLine
10
988.4999999999995453
20
172.1182394787301178
30
0.0000000000000062
11
988.4999999999996589
21
154.1182394787301178
31
0.0000000000000051
0
LINE
330
1
100
AcDbEntity
8
Cut
6
CONTINUOUS
62
5
370
0
100
AcDbLine
10
988.4999999999996589
20
154.1182394787301178
30
0.0000000000000051
11
993.9999999999996589
21
154.1182394787301462
31
0.0000000000000051
0
LINE
330
1
100
AcDbEntity
8
Cut
6
CONTINUOUS
62
5
370
0
100
AcDbLine
10
993.9999999999996589
20
154.1182394787301462
30
0.0000000000000051
11
994.9999999999996589
21
153.1182394787301462
31
0.0000000000000051
0
LINE
330
1
100
AcDbEntity
8
Cut
6
CONTINUOUS
62
5
370
0
100
AcDbLine
10
994.9999999999996589
20
153.1182394787301462
30
0.0000000000000051
11
994.9999999999997726
21
140.1182394787301462
31
0.0000000000000043
0
LINE
330
1
100
AcDbEntity
8
Cut
6
CONTINUOUS
62
5
370
0
100
AcDbLine
10
994.9999999999997726
20
140.1182394787301462
30
0.0000000000000043
11
993.9999999999997726
21
139.1182394787301462
31
0.0000000000000042
0
LINE
330
1
100
AcDbEntity
8
Cut
6
CONTINUOUS
62
5
370
0
100
AcDbLine
10
993.9999999999997726
20
139.1182394787301462
30
0.0000000000000042
11
988.4999999999996589
21
139.1182394787301462
31
0.0000000000000042
0
LINE
330
1
100
AcDbEntity
8
Cut
6
CONTINUOUS
62
5
370
0
100
AcDbLine
10
988.4999999999996589
20
139.1182394787301462
30
0.0000000000000042
11
988.4999999999997726
21
121.1182394787301320
31
0.0000000000000031
0
LINE
330
1
100
AcDbEntity
8
Cut
6
CONTINUOUS
62
5
370
0
100
AcDbLine
10
988.4999999999997726
20
121.1182394787301320
30
0.0000000000000031
11
993.9999999999997726
21
121.1182394787301604
31
0.0000000000000031
0
LINE
330
1
100
AcDbEntity
8
Cut
6
CONTINUOUS
62
5
370
0
100
AcDbLine
10
993.9999999999997726
20
121.1182394787301604
30
0.0000000000000031
11
994.9999999999997726
21
120.1182394787301604
31
0.0000000000000031
0
LINE
330
1
100
AcDbEntity
8
Cut
6
CONTINUOUS
62
5
370
0
100
AcDbLine
10
994.9999999999997726
20
120.1182394787301604
30
0.0000000000000031
11
994.9999999999998863
21
107.1182394787301604
31
0.0000000000000023
0
LINE
330
1
100
AcDbEntity
8
Cut
6
CONTINUOUS
62
5
370
0
100
AcDbLine
10
994.9999999999998863
20
107.1182394787301604
30
0.0000000000000023
11
993.9999999999998863
21
106.1182394787301604
31
0.0000000000000022
0
LINE
330
1
100
AcDbEntity
8
Cut
6
CONTINUOUS
62
5
370
0
100
AcDbLine
10
993.9999999999998863
20
106.1182394787301604
30
0.0000000000000022
11
988.4999999999998863
21
106.1182394787301320
31
0.0000000000000022
0
LINE
330
1
100
AcDbEntity
8
Cut
6
CONTINUOUS
62
5
370
0
100
AcDbLine
10
988.4999999999998863
20
106.1182394787301320
30
0.0000000000000022
11
988.4999999999998863
21
88.1182394787301320
31
0.0000000000000011
0
LINE
330
1
100
AcDbEntity
8
Cut
6
CONTINUOUS
62
5
370
0
100
AcDbLine
10
988.4999999999998863
20
88.1182394787301320
30
0.0000000000000011
11
994.0000000000000000
21
88.1182394787301604
31
0.0000000000000011
0
LINE
330
1
100
AcDbEntity
8
Cut
6
CONTINUOUS
62
5
370
0
100
AcDbLine
10
994.0000000000000000
20
88.1182394787301604
30
0.0000000000000011
11
995.0000000000000000
21
87.1182394787301462
31
0.0000000000000010
0
LINE
330
1
100
AcDbEntity
8
Cut
6
CONTINUOUS
62
5
370
0
100
AcDbLine
10
995.0000000000000000
20
87.1182394787301462
30
0.0000000000000010
11
995.0000000000000000
21
74.1182394787301604
31
0.0000000000000002
0
LINE
330
1
100
AcDbEntity
8
Cut
6
CONTINUOUS
62
5
370
0
100
AcDbLine
10
995.0000000000000000
20
74.1182394787301604
30
0.0000000000000002
11
994.0000000000000000
21
73.1182394787301604
31
0.0000000000000002
0
LINE
330
1
100
AcDbEntity
8
Cut
6
CONTINUOUS
62
5
370
0
100
AcDbLine
10
994.0000000000000000
20
73.1182394787301604
30
0.0000000000000002
11
988.5000000000000000
21
73.1182394787301320
31
0.0000000000000002
0
LINE
330
1
100
AcDbEntity
8
Cut
6
CONTINUOUS
62
5
370
0
100
AcDbLine
10
988.5000000000000000
20
73.1182394787301320
30
0.0000000000000002
11
988.5000000000000000
21
70.1182394787301320
31
0.0000000000000000
0
LINE
330
1
100
AcDbEntity
8
Cut
6
CONTINUOUS
62
5
370
0
100
AcDbLine
10
988.5000000000000000
20
70.1182394787301320
30
0.0000000000000000
11
928.5000000000001137
21
70.1182394787298620
31
0.0000000000000000
0
SPLINE
8
Cut
6
CONTINUOUS
62
5
370
0
100
AcDbEntity
100
AcDbSpline
70
0
71
3
72
14
73
10
74
0
40
0.0000000000000000
40
0.0000000000000000
40
0.0000000000000000
40
0.0000000000000000
40
0.0205502323253252
40
0.1837918602711046
40
0.3470334882168837
40
0.5102751161626626
40
0.6735167441084420
40
0.8367583720542208
40
1.0000000000000000
40
1.0000000000000000
40
1.0000000000000000
40
1.0000000000000000
10
928.5000000000001137
20
70.1182394787298620
30
0.0000000000000000
10
928.2946073739615258
20
70.1195985687203915
30
0.0000000000000000
10
926.4576698528674115
20
70.1317536467595488
30
0.0000000000000000
10
922.9891406671074492
20
70.4947228610837300
30
0.0000000000000000
10
918.2464399638267878
20
71.7827164531843493
30
0.0000000000000001
10
913.7720779270207458
20
73.8264485052916370
30
0.0000000000000002
10
909.7030527938405839
20
76.5774542102466711
30
0.0000000000000004
10
906.0860904963498115
20
79.9244730589364138
30
0.0000000000000006
10
904.1926995447405488
20
82.5911887434446754
30
0.0000000000000008
10
903.2460040689359175
20
83.9245465856988062
30
0.0000000000000008
41
1.0000000000000000
41
1.0000000000000000
41
1.0000000000000000
41
1.0000000000000000
41
1.0000000000000000
41
1.0000000000000000
41
1.0000000000000000
41
1.0000000000000000
41
1.0000000000000000
41
1.0000000000000000
0
LINE
330
1
100
AcDbEntity
8
Cut
6
CONTINUOUS
62
5
370
0
100
AcDbLine
10
903.2460040689359175
20
83.9245465856988062
30
0.0000000000000008
11
931.4698484809833872
21
112.1483909977463753
31
0.0000000000000026
0
SPLINE
8
Cut
6
CONTINUOUS
62
5
370
0
100
AcDbEntity
100
AcDbSpline
70
0
71
3
72
17
73
13
74
0
40
0.0000000000000000
40
0.0000000000000000
40
0.0000000000000000
40
0.0000000000000000
40
0.0544493292552780
40
0.1595105148935805
40
0.2645717005318829
40
0.3696328861701855
40
0.4746940718084877
40
0.5797552574467902
40
0.6848164430850927
40
0.7898776287233953
40
0.8949388143616973
40
1.0000000000000000
40
1.0000000000000000
40
1.0000000000000000
40
1.0000000000000000
10
931.4698484809833872
20
112.1483909977463753
30
0.0000000000000026
10
931.6776174936057942
20
112.3863080265424941
30
0.0000000000000026
10
932.2862814135406779
20
113.0832912269653292
30
0.0000000000000026
10
932.7994649811091676
20
114.5926090026017476
30
0.0000000000000027
10
932.6243319555989046
20
116.4582168992812399
30
0.0000000000000028
10
931.6669500027913955
20
118.0800510054259576
30
0.0000000000000029
10
930.1148681052491156
20
119.1421271400665916
30
0.0000000000000030
10
928.2594788913189632
20
119.4477295211907943
30
0.0000000000000030
10
926.4455113839247815
20
118.9373777817536961
30
0.0000000000000030
10
925.0329773157098998
20
117.7118018809376281
30
0.0000000000000029
10
924.2177693156561418
20
115.9849196724767353
30
0.0000000000000028
10
924.3489517407218727
20
114.7576747369625991
30
0.0000000000000027
10
924.4145429532547951
20
114.1440522692055453
30
0.0000000000000027
41
1.0000000000000000
41
1.0000000000000000
41
1.0000000000000000
41
1.0000000000000000
41
1.0000000000000000
41
1.0000000000000000
41
1.0000000000000000
41
1.0000000000000000
41
1.0000000000000000
41
1.0000000000000000
41
1.0000000000000000
41
1.0000000000000000
41
1.0000000000000000
0
LINE
330
1
100
AcDbEntity
8
Cut
6
CONTINUOUS
62
5
370
0
100
AcDbLine
10
924.4145429532547951
20
114.1440522692055453
30
0.0000000000000027
11
920.7004910925772947
21
113.2584275332743573
31
0.0000000000000026
0
LINE
330
1
100
AcDbEntity
8
Cut
6
CONTINUOUS
62
5
370
0
100
AcDbLine
10
920.7004910925772947
20
113.2584275332743573
30
0.0000000000000026
11
899.5806996901612820
21
92.1386361308581314
31
0.0000000000000013
0
ARC
8
Cut
6
CONTINUOUS
62
5
370
0
100
AcDbEntity
100
AcDbCircle
10
928.8404339063019961
20
100.1643453816203646
30
0.0000000000000018
40
30.3404689379871755
100
AcDbArc
50
180.0870676939231032
51
195.3385278682684429
0
LINE
330
1
100
AcDbEntity
8
Cut
6
CONTINUOUS
62
5
370
0
100
AcDbLine
10
898.4999999999998863
20
100.1182394787297341
30
0.0000000000000018
11
898.4999999999998863
21
115.1182394787297198
31
0.0000000000000028
0
SPLINE
8
Cut
6
CONTINUOUS
62
5
370
0
100
AcDbEntity
100
AcDbSpline
70
0
71
3
72
17
73
13
74
0
40
0.0000000000000000
40
0.0000000000000000
40
0.0000000000000000
40
0.0000000000000000
40
0.0641451213433324
40
0.1681289967496287
40
0.2721128721559252
40
0.3760967475622217
40
0.4800806229685181
40
0.5840644983748142
40
0.6880483737811109
40
0.7920322491874072
40
0.8960161245937037
40
1.0000000000000000
40
1.0000000000000000
40
1.0000000000000000
40
1.0000000000000000
10
898.4999999999998863
20
115.1182394787297198
30
0.0000000000000028
10
898.5302666885771714
20
116.1250380362356793
30
0.0000000000000028
10
898.6095978657403975
20
118.7639297844706334
30
0.0000000000000030
10
899.4180348285786977
20
122.9828767588675476
30
0.0000000000000032
10
901.0747302083490240
20
127.6083178892412064
30
0.0000000000000035
10
903.4734247437505701
20
131.9016562399334589
30
0.0000000000000038
10
906.5351997532574160
20
135.7483470110925907
30
0.0000000000000040
10
910.1825793225767711
20
139.0447505271936848
30
0.0000000000000042
10
914.3173808432283067
20
141.7082846694806904
30
0.0000000000000044
10
918.8298164061075113
20
143.6485705863814815
30
0.0000000000000045
10
923.5996774246615360
20
144.8866567018169178
30
0.0000000000000046
10
926.8665591415536937
20
145.0410452197588711
30
0.0000000000000046
10
928.4999999999996589
20
145.1182394787298335
30
0.0000000000000046
41
1.0000000000000000
41
1.0000000000000000
41
1.0000000000000000
41
1.0000000000000000
41
1.0000000000000000
41
1.0000000000000000
41
1.0000000000000000
41
1.0000000000000000
41
1.0000000000000000
41
1.0000000000000000
41
1.0000000000000000
41
1.0000000000000000
41
1.0000000000000000
0
LINE
330
1
100
AcDbEntity
8
Cut
6
CONTINUOUS
62
5
370
0
100
AcDbLine
10
928.4999999999996589
20
145.1182394787298620
30
0.0000000000000046
11
938.4999999999996589
21
145.1182394787298620
31
0.0000000000000046
0
SPLINE
8
Cut
6
CONTINUOUS
62
5
370
0
100
AcDbEntity
100
AcDbSpline
70
0
71
3
72
17
73
13
74
0
40
0.0000000000000000
40
0.0000000000000000
40
0.0000000000000000
40
0.0000000000000000
40
0.0641451213433324
40
0.1681289967496289
40
0.2721128721559254
40
0.3760967475622216
40
0.4800806229685182
40
0.5840644983748144
40
0.6880483737811107
40
0.7920322491874074
40
0.8960161245937036
40
0.9999999999999999
40
0.9999999999999999
40
0.9999999999999999
40
0.9999999999999999
10
938.4999999999996589
20
145.1182394787298620
30
0.0000000000000046
10
939.5067985575055900
20
145.1485061673072039
30
0.0000000000000046
10
942.1456903057405725
20
145.2278373444704300
30
0.0000000000000046
10
946.3646372801375719
20
146.0362743073088154
30
0.0000000000000046
10
950.9900784105111597
20
147.6929696870792839
30
0.0000000000000048
10
955.2834167612033980
20
150.0916642224807163
30
0.0000000000000049
10
959.1301075323624445
20
153.1534392319877327
30
0.0000000000000051
10
962.4265110484635670
20
156.8008188013069741
30
0.0000000000000053
10
965.0900451907506294
20
160.9356203219586234
30
0.0000000000000056
10
967.0303311076512500
20
165.4480558848379133
30
0.0000000000000058
10
968.2684172230866579
20
170.2179169033918811
30
0.0000000000000061
10
968.4228057410285828
20
173.4847986202839820
30
0.0000000000000063
10
968.4999999999995453
20
175.1182394787300041
30
0.0000000000000064
41
1.0000000000000000
41
1.0000000000000000
41
1.0000000000000000
41
1.0000000000000000
41
1.0000000000000000
41
1.0000000000000000
41
1.0000000000000000
41
1.0000000000000000
41
1.0000000000000000
41
1.0000000000000000
41
1.0000000000000000
41
1.0000000000000000
41
1.0000000000000000
0
LINE
330
1
100
AcDbEntity
8
Cut
6
CONTINUOUS
62
5
370
0
100
AcDbLine
10
968.4999999999995453
20
175.1182394787300041
30
0.0000000000000064
11
968.4999999999995453
21
180.1182394787300325
31
0.0000000000000067
0
SPLINE
8
Cut
6
CONTINUOUS
62
5
370
0
100
AcDbEntity
100
AcDbSpline
70
0
71
3
72
13
73
9
74
0
40
0.0000000000000000
40
0.0000000000000000
40
0.0000000000000000
40
0.0000000000000000
40
0.0991400469650263
40
0.2793120375720212
40
0.4594840281790155
40
0.6396560187860107
40
0.8198280093930053
40
1.0000000000000000
40
1.0000000000000000
40
1.0000000000000000
40
1.0000000000000000
10
968.4999999999995453
20
180.1182394787300325
30
0.0000000000000067
10
968.5241634416349825
20
180.6360488467791754
30
0.0000000000000068
10
968.5922402715794988
20
182.0948981623811562
30
0.0000000000000069
10
969.3311908352472983
20
184.4208889133611819
30
0.0000000000000070
10
970.8894444453079586
20
186.8150357292539070
30
0.0000000000000071
10
973.0644405652091109
20
188.6617830919236667
30
0.0000000000000073
10
975.6691892727362756
20
189.8853535754316795
30
0.0000000000000073
10
977.5563964242451220
20
190.0406108442972766
30
0.0000000000000073
10
978.4999999999994316
20
190.1182394787300893
30
0.0000000000000073
41
1.0000000000000000
41
1.0000000000000000
41
1.0000000000000000
41
1.0000000000000000
41
1.0000000000000000
41
1.0000000000000000
41
1.0000000000000000
41
1.0000000000000000
41
1.0000000000000000
0
LINE
330
1
100
AcDbEntity
8
Cut
6
CONTINUOUS
62
5
370
0
100
AcDbLine
10
978.4999999999994316
20
190.1182394787300893
30
0.0000000000000073
11
988.4999999999995453
21
190.1182394787301462
31
0.0000000000000073
0
LINE
330
1
100
AcDbEntity
8
Cut
6
CONTINUOUS
62
5
370
0
100
AcDbLine
10
988.4999999999995453
20
190.1182394787301462
30
0.0000000000000073
11
988.4999999999995453
21
187.1182394787301178
31
0.0000000000000072
0
LINE
330
1
100
AcDbEntity
8
Cut
6
CONTINUOUS
62
5
370
0
100
AcDbLine
10
988.4999999999995453
20
187.1182394787301178
30
0.0000000000000072
11
993.9999999999995453
21
187.1182394787301462
31
0.0000000000000072
0
LINE
330
1
100
AcDbEntity
8
Cut
6
CONTINUOUS
62
5
370
0
100
AcDbLine
10
918.3474567361831760
20
129.0760324282494480
30
0.0000000000000036
11
922.9577929495196713
21
124.4656962149132085
31
0.0000000000000033
0
LINE
330
1
100
AcDbEntity
8
Cut
6
CONTINUOUS
62
5
370
0
100
AcDbLine
10
922.9577929495196713
20
124.4656962149132085
30
0.0000000000000033
11
915.8725830020304102
21
117.3804862674239331
31
0.0000000000000029
0
LINE
330
1
100
AcDbEntity
8
Cut
6
CONTINUOUS
62
5
370
0
100
AcDbLine
10
915.8725830020304102
20
117.3804862674239473
30
0.0000000000000029
11
911.2622467886941422
21
121.9908224807601869
31
0.0000000000000032
0
LINE
330
1
100
AcDbEntity
8
Cut
6
CONTINUOUS
62
5
370
0
100
AcDbLine
10
911.2622467886941422
20
121.9908224807601869
30
0.0000000000000032
11
918.3474567361831760
21
129.0760324282494480
31
0.0000000000000036
0
LINE
330
1
100
AcDbEntity
8
Cut
6
CONTINUOUS
62
5
370
0
100
AcDbLine
10
931.7824855787275737
20
142.5110612707939310
30
0.0000000000000044
11
936.3928217920638417
21
137.9007250574577199
31
0.0000000000000042
0
LINE
330
1
100
AcDbEntity
8
Cut
6
CONTINUOUS
62
5
370
0
100
AcDbLine
10
936.3928217920638417
20
137.9007250574577199
30
0.0000000000000042
11
929.3076118445746943
21
130.8155151099684304
31
0.0000000000000037
0
LINE
330
1
100
AcDbEntity
8
Cut
6
CONTINUOUS
62
5
370
0
100
AcDbLine
10
929.3076118445746943
20
130.8155151099684304
30
0.0000000000000037
11
924.6972756312384263
21
135.4258513233046699
31
0.0000000000000040
0
LINE
330
1
100
AcDbEntity
8
Cut
6
CONTINUOUS
62
5
370
0
100
AcDbLine
10
924.6972756312384263
20
135.4258513233046699
30
0.0000000000000040
11
931.7824855787275737
21
142.5110612707939310
31
0.0000000000000044
0
LINE
330
1
100
AcDbEntity
8
Cut
6
CONTINUOUS
62
5
370
0
100
AcDbLine
10
950.8743686707646248
20
114.9056125332713378
30
0.0000000000000027
11
946.2640324574281294
21
119.5159487466075632
31
0.0000000000000030
0
LINE
330
1
100
AcDbEntity
8
Cut
6
CONTINUOUS
62
5
370
0
100
AcDbLine
10
946.2640324574281294
20
119.5159487466075632
30
0.0000000000000030
11
950.5208152801711776
21
123.7727315693506256
31
0.0000000000000033
0
LINE
330
1
100
AcDbEntity
8
Cut
6
CONTINUOUS
62
5
370
0
100
AcDbLine
10
950.5208152801711776
20
123.7727315693506256
30
0.0000000000000033
11
955.1311514935074456
21
119.1623953560143718
31
0.0000000000000030
0
LINE
330
1
100
AcDbEntity
8
Cut
6
CONTINUOUS
62
5
370
0
100
AcDbLine
10
955.1311514935074456
20
119.1623953560143718
30
0.0000000000000030
11
950.8743686707646248
21
114.9056125332713378
31
0.0000000000000027
0
LINE
330
1
100
AcDbEntity
8
Cut
6
CONTINUOUS
62
5
370
0
100
AcDbLine
10
934.6109127034741277
20
98.6421565659805992
30
0.0000000000000017
11
930.0005764901377461
21
103.2524927793168672
31
0.0000000000000020
0
LINE
330
1
100
AcDbEntity
8
Cut
6
CONTINUOUS
62
5
370
0
100
AcDbLine
10
930.0005764901377461
20
103.2524927793168672
30
0.0000000000000020
11
934.2573593128807943
21
107.5092756020599154
31
0.0000000000000023
0
LINE
330
1
100
AcDbEntity
8
Cut
6
CONTINUOUS
62
5
370
0
100
AcDbLine
10
934.2573593128807943
20
107.5092756020599154
30
0.0000000000000023
11
938.8676955262171759
21
102.8989393887236616
31
0.0000000000000020
0
LINE
330
1
100
AcDbEntity
8
Cut
6
CONTINUOUS
62
5
370
0
100
AcDbLine
10
938.8676955262171759
20
102.8989393887236616
30
0.0000000000000020
11
934.6109127034741277
21
98.6421565659805992
31
0.0000000000000017
0
LINE
330
1
100
AcDbEntity
8
Cut
6
CONTINUOUS
62
5
370
0
100
AcDbLine
10
872.3289005989321367
20
80.7995089074226769
30
0.0000000000000026
11
855.6233227588890031
21
97.5050867474657679
31
0.0000000000000016
0
SPLINE
8
Cut
6
CONTINUOUS
62
5
370
0
100
AcDbEntity
100
AcDbSpline
70
0
71
3
72
9
73
5
74
0
40
0.0000000000000000
40
0.0000000000000000
40
0.0000000000000000
40
0.0000000000000000
40
0.3425090609927814
40
1.0000000000000000
40
1.0000000000000000
40
1.0000000000000000
40
1.0000000000000000
10
855.6233227588890031
20
97.5050867474657679
30
0.0000000000000016
10
855.4455314460035424
20
97.7093486873004053
30
0.0000000000000016
10
854.9264464548789419
20
98.3057181358707766
30
0.0000000000000016
10
854.8167605747622702
20
99.1025182414241215
30
0.0000000000000016
10
854.7446431024486628
20
99.6264070910254134
30
0.0000000000000016
41
1.0000000000000000
41
1.0000000000000000
41
1.0000000000000000
41
1.0000000000000000
41
1.0000000000000000
0
LINE
330
1
100
AcDbEntity
8
Cut
6
CONTINUOUS
62
5
370
0
100
AcDbLine
10
854.7446431024486628
20
99.6264070910254134
30
0.0000000000000016
11
854.7446431024486628
21
99.9613550002010953
31
0.0000000000000016
0
SPLINE
8
Cut
6
CONTINUOUS
62
5
370
0
100
AcDbEntity
100
AcDbSpline
70
0
71
3
72
10
73
6
74
0
40
0.0000000000000000
40
0.0000000000000000
40
0.0000000000000000
40
0.0000000000000000
40
0.3177375298491870
40
0.6588687649245937
40
1.0000000000000000
40
1.0000000000000000
40
1.0000000000000000
40
1.0000000000000000
10
854.7446431024486628
20
99.9613550002010953
30
0.0000000000000016
10
854.8132648590787994
20
100.4399662757909084
30
0.0000000000000016
10
854.9555607095544474
20
101.4324270032867190
30
0.0000000000000016
10
856.0549900149690075
20
102.6369713372031782
30
0.0000000000000016
10
857.0744572998117974
20
102.8503645199574095
30
0.0000000000000017
10
857.5841909422332492
20
102.9570611113345109
30
0.0000000000000017
41
1.0000000000000000
41
1.0000000000000000
41
1.0000000000000000
41
1.0000000000000000
41
1.0000000000000000
41
1.0000000000000000
0
LINE
330
1
100
AcDbEntity
8
Cut
6
CONTINUOUS
62
5
370
0
100
AcDbLine
10
857.5841909422332492
20
102.9570611113345109
30
0.0000000000000017
11
859.1887125443874993
21
103.0000000000001705
31
0.0000000000000018
0
LINE
330
1
100
AcDbEntity
8
Cut
6
CONTINUOUS
62
5
370
0
100
AcDbLine
10
859.1887125443874993
20
103.0000000000001705
30
0.0000000000000018
11
874.1887125443876130
21
103.0000000000001563
31
0.0000000000000028
0
SPLINE
8
Cut
6
CONTINUOUS
62
5
370
0
100
AcDbEntity
100
AcDbSpline
70
0
71
3
72
17
73
13
74
0
40
0.0000000000000000
40
0.0000000000000000
40
0.0000000000000000
40
0.0000000000000000
40
0.0641451213433324
40
0.1681289967496287
40
0.2721128721559252
40
0.3760967475622217
40
0.4800806229685181
40
0.5840644983748142
40
0.6880483737811109
40
0.7920322491874072
40
0.8960161245937037
40
1.0000000000000000
40
1.0000000000000000
40
1.0000000000000000
40
1.0000000000000000
10
874.1887125443876130
20
103.0000000000001705
30
0.0000000000000028
10
875.1955111018935440
20
102.9697333114228428
30
0.0000000000000028
10
877.8344028501285266
20
102.8904021342596593
30
0.0000000000000030
10
882.0533498245252986
20
102.0819651714212739
30
0.0000000000000032
10
886.6787909548990001
20
100.4252697916508481
30
0.0000000000000035
10
890.9721293055912383
20
98.0265752562494015
30
0.0000000000000038
10
894.8188200767503986
20
94.9648002467424845
30
0.0000000000000040
10
898.1152235928514074
20
91.3174206774231862
30
0.0000000000000042
10
900.7787577351383561
20
87.1826191567715085
30
0.0000000000000044
10
902.7190436520390904
20
82.6701835938923608
30
0.0000000000000045
10
903.9571297674746120
20
77.9003225753382935
30
0.0000000000000046
10
904.1115182854165369
20
74.6334408584462068
30
0.0000000000000046
10
904.1887125443874993
20
73.0000000000001563
30
0.0000000000000046
41
1.0000000000000000
41
1.0000000000000000
41
1.0000000000000000
41
1.0000000000000000
41
1.0000000000000000
41
1.0000000000000000
41
1.0000000000000000
41
1.0000000000000000
41
1.0000000000000000
41
1.0000000000000000
41
1.0000000000000000
41
1.0000000000000000
41
1.0000000000000000
0
LINE
330
1
100
AcDbEntity
8
Cut
6
CONTINUOUS
62
5
370
0
100
AcDbLine
10
904.1887125443874993
20
73.0000000000001563
30
0.0000000000000046
11
904.1887125443874993
21
63.0000000000001776
31
0.0000000000000046
0
SPLINE
8
Cut
6
CONTINUOUS
62
5
370
0
100
AcDbEntity
100
AcDbSpline
70
0
71
3
72
17
73
13
74
0
40
0.0000000000000000
40
0.0000000000000000
40
0.0000000000000000
40
0.0000000000000000
40
0.0641451213433324
40
0.1681289967496289
40
0.2721128721559254
40
0.3760967475622216
40
0.4800806229685182
40
0.5840644983748144
40
0.6880483737811107
40
0.7920322491874074
40
0.8960161245937036
40
0.9999999999999999
40
0.9999999999999999
40
0.9999999999999999
40
0.9999999999999999
10
904.1887125443874993
20
63.0000000000001776
30
0.0000000000000046
10
904.2189792329647844
20
61.9932014424942039
30
0.0000000000000046
10
904.2983104101280105
20
59.3543096942592712
30
0.0000000000000046
10
905.1067473729664243
20
55.1353627198623428
30
0.0000000000000046
10
906.7634427527367507
20
50.5099215894886910
30
0.0000000000000048
10
909.1621372881381831
20
46.2165832387963889
30
0.0000000000000049
10
912.2239122976452563
20
42.3698924676373707
30
0.0000000000000051
10
915.8712918669644978
20
39.0734889515362411
30
0.0000000000000053
10
920.0060933876161471
20
36.4099548092492569
30
0.0000000000000056
10
924.5185289504953516
20
34.4696688923485510
30
0.0000000000000058
10
929.2883899690493763
20
33.2315827769130792
30
0.0000000000000061
10
932.5552716859414204
20
33.0771942589711401
30
0.0000000000000063
10
934.1887125443874993
20
33.0000000000001847
30
0.0000000000000064
41
1.0000000000000000
41
1.0000000000000000
41
1.0000000000000000
41
1.0000000000000000
41
1.0000000000000000
41
1.0000000000000000
41
1.0000000000000000
41
1.0000000000000000
41
1.0000000000000000
41
1.0000000000000000
41
1.0000000000000000
41
1.0000000000000000
41
1.0000000000000000
0
LINE
330
1
100
AcDbEntity
8
Cut
6
CONTINUOUS
62
5
370
0
100
AcDbLine
10
934.1887125443874993
20
33.0000000000001847
30
0.0000000000000064
11
939.1887125443874993
21
33.0000000000001847
31
0.0000000000000067
0
SPLINE
8
Cut
6
CONTINUOUS
62
5
370
0
100
AcDbEntity
100
AcDbSpline
70
0
71
3
72
13
73
9
74
0
40
0.0000000000000000
40
0.0000000000000000
40
0.0000000000000000
40
0.0000000000000000
40
0.0991400469650263
40
0.2793120375720212
40
0.4594840281790155
40
0.6396560187860107
40
0.8198280093930053
40
1.0000000000000000
40
1.0000000000000000
40
1.0000000000000000
40
1.0000000000000000
10
939.1887125443874993
20
33.0000000000001847
30
0.0000000000000067
10
939.7065219124366422
20
32.9758365583647759
30
0.0000000000000068
10
941.1653712280386799
20
32.9077597284201460
30
0.0000000000000069
10
943.4913619790186203
20
32.1688091647523535
30
0.0000000000000070
10
945.8855087949114022
20
30.6105555546916897
30
0.0000000000000071
10
947.7322561575812188
20
28.4355594347905800
30
0.0000000000000073
10
948.9558266410891747
20
25.8308107272633549
30
0.0000000000000073
10
949.1110839099546865
20
23.9436035757545760
30
0.0000000000000073
10
949.1887125443874993
20
23.0000000000001883
30
0.0000000000000073
41
1.0000000000000000
41
1.0000000000000000
41
1.0000000000000000
41
1.0000000000000000
41
1.0000000000000000
41
1.0000000000000000
41
1.0000000000000000
41
1.0000000000000000
41
1.0000000000000000
0
LINE
330
1
100
AcDbEntity
8
Cut
6
CONTINUOUS
62
5
370
0
100
AcDbLine
10
949.1887125443874993
20
23.0000000000001883
30
0.0000000000000073
11
949.1887125443874993
21
13.0000000000001812
31
0.0000000000000073
0
LINE
330
1
100
AcDbEntity
8
Cut
6
CONTINUOUS
62
5
370
0
100
AcDbLine
10
949.1887125443874993
20
13.0000000000001812
30
0.0000000000000073
11
946.1887125443874993
21
13.0000000000001812
31
0.0000000000000072
0
LINE
330
1
100
AcDbEntity
8
Cut
6
CONTINUOUS
62
5
370
0
100
AcDbLine
10
946.1887125443874993
20
13.0000000000001812
30
0.0000000000000072
11
946.1887125443874993
21
7.5000000000001767
31
0.0000000000000072
0
LINE
330
1
100
AcDbEntity
8
Cut
6
CONTINUOUS
62
5
370
0
100
AcDbLine
10
946.1887125443874993
20
7.5000000000001794
30
0.0000000000000072
11
945.1887125443874993
21
6.5000000000001821
31
0.0000000000000071
0
LINE
330
1
100
AcDbEntity
8
Cut
6
CONTINUOUS
62
5
370
0
100
AcDbLine
10
945.1887125443874993
20
6.5000000000001821
30
0.0000000000000071
11
932.1887125443874993
21
6.5000000000001821
31
0.0000000000000063
0
LINE
330
1
100
AcDbEntity
8
Cut
6
CONTINUOUS
62
5
370
0
100
AcDbLine
10
932.1887125443874993
20
6.5000000000001821
30
0.0000000000000063
11
931.1887125443874993
21
7.5000000000001821
31
0.0000000000000062
0
LINE
330
1
100
AcDbEntity
8
Cut
6
CONTINUOUS
62
5
370
0
100
AcDbLine
10
931.1887125443874993
20
7.5000000000001821
30
0.0000000000000062
11
931.1887125443874993
21
13.0000000000001723
31
0.0000000000000062
0
LINE
330
1
100
AcDbEntity
8
Cut
6
CONTINUOUS
62
5
370
0
100
AcDbLine
10
931.1887125443874993
20
13.0000000000001812
30
0.0000000000000062
11
913.1887125443874993
21
13.0000000000001812
31
0.0000000000000051
0
LINE
330
1
100
AcDbEntity
8
Cut
6
CONTINUOUS
62
5
370
0
100
AcDbLine
10
913.1887125443874993
20
13.0000000000001812
30
0.0000000000000051
11
913.1887125443874993
21
7.5000000000001767
31
0.0000000000000051
0
LINE
330
1
100
AcDbEntity
8
Cut
6
CONTINUOUS
62
5
370
0
100
AcDbLine
10
913.1887125443874993
20
7.5000000000001794
30
0.0000000000000051
11
912.1887125443874993
21
6.5000000000001821
31
0.0000000000000051
0
LINE
330
1
100
AcDbEntity
8
Cut
6
CONTINUOUS
62
5
370
0
100
AcDbLine
10
912.1887125443874993
20
6.5000000000001821
30
0.0000000000000051
11
899.1887125443874993
21
6.5000000000001821
31
0.0000000000000043
0
LINE
330
1
100
AcDbEntity
8
Cut
6
CONTINUOUS
62
5
370
0
100
AcDbLine
10
899.1887125443874993
20
6.5000000000001821
30
0.0000000000000043
11
898.1887125443874993
21
7.5000000000001821
31
0.0000000000000042
0
LINE
330
1
100
AcDbEntity
8
Cut
6
CONTINUOUS
62
5
370
0
100
AcDbLine
10
898.1887125443874993
20
7.5000000000001821
30
0.0000000000000042
11
898.1887125443874993
21
13.0000000000001723
31
0.0000000000000042
0
LINE
330
1
100
AcDbEntity
8
Cut
6
CONTINUOUS
62
5
370
0
100
AcDbLine
10
898.1887125443874993
20
13.0000000000001812
30
0.0000000000000042
11
880.1887125443874993
21
13.0000000000001812
31
0.0000000000000031
0
LINE
330
1
100
AcDbEntity
8
Cut
6
CONTINUOUS
62
5
370
0
100
AcDbLine
10
880.1887125443874993
20
13.0000000000001812
30
0.0000000000000031
11
880.1887125443874993
21
7.5000000000001767
31
0.0000000000000031
0
LINE
330
1
100
AcDbEntity
8
Cut
6
CONTINUOUS
62
5
370
0
100
AcDbLine
10
880.1887125443874993
20
7.5000000000001794
30
0.0000000000000031
11
879.1887125443876130
21
6.5000000000001821
31
0.0000000000000031
0
LINE
330
1
100
AcDbEntity
8
Cut
6
CONTINUOUS
62
5
370
0
100
AcDbLine
10
879.1887125443876130
20
6.5000000000001821
30
0.0000000000000031
11
866.1887125443876130
21
6.5000000000001821
31
0.0000000000000023
0
LINE
330
1
100
AcDbEntity
8
Cut
6
CONTINUOUS
62
5
370
0
100
AcDbLine
10
866.1887125443876130
20
6.5000000000001821
30
0.0000000000000023
11
865.1887125443876130
21
7.5000000000001821
31
0.0000000000000022
0
LINE
330
1
100
AcDbEntity
8
Cut
6
CONTINUOUS
62
5
370
0
100
AcDbLine
10
865.1887125443876130
20
7.5000000000001821
30
0.0000000000000022
11
865.1887125443876130
21
13.0000000000001723
31
0.0000000000000022
0
LINE
330
1
100
AcDbEntity
8
Cut
6
CONTINUOUS
62
5
370
0
100
AcDbLine
10
865.1887125443876130
20
13.0000000000001812
30
0.0000000000000022
11
847.1887125443874993
21
13.0000000000001812
31
0.0000000000000011
0
LINE
330
1
100
AcDbEntity
8
Cut
6
CONTINUOUS
62
5
370
0
100
AcDbLine
10
847.1887125443874993
20
13.0000000000001812
30
0.0000000000000011
11
847.1887125443874993
21
7.5000000000001767
31
0.0000000000000011
0
LINE
330
1
100
AcDbEntity
8
Cut
6
CONTINUOUS
62
5
370
0
100
AcDbLine
10
847.1887125443874993
20
7.5000000000001794
30
0.0000000000000011
11
846.1887125443874993
21
6.5000000000001821
31
0.0000000000000010
0
LINE
330
1
100
AcDbEntity
8
Cut
6
CONTINUOUS
62
5
370
0
100
AcDbLine
10
846.1887125443874993
20
6.5000000000001821
30
0.0000000000000010
11
833.1887125443874993
21
6.5000000000001821
31
0.0000000000000002
0
LINE
330
1
100
AcDbEntity
8
Cut
6
CONTINUOUS
62
5
370
0
100
AcDbLine
10
833.1887125443874993
20
6.5000000000001821
30
0.0000000000000002
11
832.1887125443874993
21
7.5000000000001830
31
0.0000000000000002
0
LINE
330
1
100
AcDbEntity
8
Cut
6
CONTINUOUS
62
5
370
0
100
AcDbLine
10
832.1887125443874993
20
7.5000000000001830
30
0.0000000000000002
11
832.1887125443874993
21
13.0000000000001723
31
0.0000000000000002
0
LINE
330
1
100
AcDbEntity
8
Cut
6
CONTINUOUS
62
5
370
0
100
AcDbLine
10
832.1887125443874993
20
13.0000000000001812
30
0.0000000000000002
11
829.1887125443874993
21
13.0000000000001812
31
0.0000000000000000
0
LINE
330
1
100
AcDbEntity
8
Cut
6
CONTINUOUS
62
5
370
0
100
AcDbLine
10
829.1887125443874993
20
13.0000000000001812
30
0.0000000000000000
11
829.1887125443874993
21
73.0000000000001421
31
0.0000000000000000
0
SPLINE
8
Cut
6
CONTINUOUS
62
5
370
0
100
AcDbEntity
100
AcDbSpline
70
0
71
3
72
12
73
8
74
0
40
0.0000000000000000
40
0.0000000000000000
40
0.0000000000000000
40
0.0000000000000000
40
0.1729355533126233
40
0.3797016649844677
40
0.5864677766563117
40
0.7932338883281560
40
1.0000000000000000
40
1.0000000000000000
40
1.0000000000000000
40
1.0000000000000000
10
829.1887125443874993
20
73.0000000000001705
30
0.0000000000000000
10
829.2434139346781876
20
74.3655029079741752
30
0.0000000000000000
10
829.3635176876223341
20
77.3636355519977883
30
0.0000000000000000
10
830.4071188591503869
20
81.9047074080632882
30
0.0000000000000001
10
832.2355345970927374
20
86.4589638347771086
30
0.0000000000000002
10
834.7551237096860177
20
90.6958547163864068
30
0.0000000000000003
10
836.9665916166467241
20
93.1050049270000812
30
0.0000000000000005
10
838.0723255701270773
20
94.3095800323069113
30
0.0000000000000005
41
1.0000000000000000
41
1.0000000000000000
41
1.0000000000000000
41
1.0000000000000000
41
1.0000000000000000
41
1.0000000000000000
41
1.0000000000000000
41
1.0000000000000000
0
SPLINE
8
Cut
6
CONTINUOUS
62
5
370
0
100
AcDbEntity
100
AcDbSpline
70
0
71
3
72
9
73
5
74
0
40
0.0000000000000000
40
0.0000000000000000
40
0.0000000000000000
40
0.0000000000000000
40
0.4805183890473637
40
0.9999999999999999
40
0.9999999999999999
40
0.9999999999999999
40
0.9999999999999999
10
838.0723255701270773
20
94.3095800323068971
30
0.0000000000000005
10
838.4619848854383690
20
94.6075230886365972
30
0.0000000000000006
10
839.2728993565448263
20
95.2275681548001671
30
0.0000000000000006
10
840.2941194039630091
20
95.1498100946370471
30
0.0000000000000007
10
840.8246244393329789
20
95.1094162122789726
30
0.0000000000000007
41
1.0000000000000000
41
1.0000000000000000
41
1.0000000000000000
41
1.0000000000000000
41
1.0000000000000000
0
LINE
330
1
100
AcDbEntity
8
Cut
6
CONTINUOUS
62
5
370
0
100
AcDbLine
10
840.8246244393329789
20
95.1094162122789726
30
0.0000000000000007
11
846.7675031290193601
21
93.8103261212646373
31
0.0000000000000011
0
SPLINE
8
Cut
6
CONTINUOUS
62
5
370
0
100
AcDbEntity
100
AcDbSpline
70
0
71
3
72
9
73
5
74
0
40
0.0000000000000000
40
0.0000000000000000
40
0.0000000000000000
40
0.0000000000000000
40
0.0927301965092860
40
1.0000000000000000
40
1.0000000000000000
40
1.0000000000000000
40
1.0000000000000000
10
846.7675031290193601
20
93.8103261212646373
30
0.0000000000000011
10
846.8185822962493603
20
93.7984541720076379
30
0.0000000000000011
10
847.3694186920814673
20
93.6704273834975396
30
0.0000000000000011
10
847.8301529873077698
20
93.3193626832382961
30
0.0000000000000011
10
848.2481633007992059
20
93.0008522816215333
30
0.0000000000000012
41
1.0000000000000000
41
1.0000000000000000
41
1.0000000000000000
41
1.0000000000000000
41
1.0000000000000000
0
LINE
330
1
100
AcDbEntity
8
Cut
6
CONTINUOUS
62
5
370
0
100
AcDbLine
10
848.2481633007992059
20
93.0008522816215333
30
0.0000000000000012
11
871.2188640634039984
21
70.0301515190166839
31
0.0000000000000026
0
SPLINE
8
Cut
6
CONTINUOUS
62
5
370
0
100
AcDbEntity
100
AcDbSpline
70
0
71
3
72
17
73
13
74
0
40
0.0000000000000000
40
0.0000000000000000
40
0.0000000000000000
40
0.0000000000000000
40
0.0544493292552780
40
0.1595105148935805
40
0.2645717005318829
40
0.3696328861701855
40
0.4746940718084877
40
0.5797552574467902
40
0.6848164430850927
40
0.7898776287233953
40
0.8949388143616973
40
1.0000000000000000
40
1.0000000000000000
40
1.0000000000000000
40
1.0000000000000000
10
871.2188640634039984
20
70.0301515190166839
30
0.0000000000000026
10
871.4567810922001172
20
69.8223825063942201
30
0.0000000000000026
10
872.1537642926228955
20
69.2137185864593931
30
0.0000000000000026
10
873.6630820682594276
20
68.7005350188908039
30
0.0000000000000027
10
875.5286899649389625
20
68.8756680444011238
30
0.0000000000000028
10
877.1505240710836233
20
69.8330499972085903
30
0.0000000000000029
10
878.2126002057242431
20
71.3851318947508275
30
0.0000000000000030
10
878.5182025868484743
20
73.2405211086810226
30
0.0000000000000030
10
878.0078508474114187
20
75.0544886160751332
30
0.0000000000000030
10
876.7822749465952938
20
76.4670226842901002
30
0.0000000000000029
10
875.0553927381344010
20
77.2822306843439293
30
0.0000000000000028
10
873.8281478026202649
20
77.1510482592781841
30
0.0000000000000027
10
873.2145253348631968
20
77.0854570467452902
30
0.0000000000000027
41
1.0000000000000000
41
1.0000000000000000
41
1.0000000000000000
41
1.0000000000000000
41
1.0000000000000000
41
1.0000000000000000
41
1.0000000000000000
41
1.0000000000000000
41
1.0000000000000000
41
1.0000000000000000
41
1.0000000000000000
41
1.0000000000000000
41
1.0000000000000000
0
LINE
330
1
100
AcDbEntity
8
Cut
6
CONTINUOUS
62
5
370
0
100
AcDbLine
10
873.2145253348631968
20
77.0854570467452902
30
0.0000000000000027
11
872.3289005989321367
21
80.7995089074226769
31
0.0000000000000026
0
LINE
330
1
100
AcDbEntity
8
Cut
6
CONTINUOUS
62
5
370
0
100
AcDbLine
10
840.1987125443874902
20
60.0095855400111375
30
0.0000000000000007
11
832.1787125443875084
21
60.0095855400111375
31
0.0000000000000002
0
LINE
330
1
100
AcDbEntity
8
Cut
6
CONTINUOUS
62
5
370
0
100
AcDbLine
10
832.1787125443875084
20
60.0095855400111375
30
0.0000000000000002
11
832.1787125443875084
21
66.5295855400111549
31
0.0000000000000002
0
LINE
330
1
100
AcDbEntity
8
Cut
6
CONTINUOUS
62
5
370
0
100
AcDbLine
10
832.1787125443875084
20
66.5295855400111549
30
0.0000000000000002
11
840.1987125443874902
21
66.5295855400111549
31
0.0000000000000007
0
LINE
330
1
100
AcDbEntity
8
Cut
6
CONTINUOUS
62
5
370
0
100
AcDbLine
10
840.1987125443874902
20
66.5295855400111549
30
0.0000000000000007
11
840.1987125443874902
21
60.0095855400111375
31
0.0000000000000007
0
LINE
330
1
100
AcDbEntity
8
Cut
6
CONTINUOUS
62
5
370
0
100
AcDbLine
10
852.1987125443874902
20
60.0095855400111375
30
0.0000000000000014
11
844.1787125443875084
21
60.0095855400111375
31
0.0000000000000009
0
LINE
330
1
100
AcDbEntity
8
Cut
6
CONTINUOUS
62
5
370
0
100
AcDbLine
10
844.1787125443875084
20
60.0095855400111375
30
0.0000000000000009
11
844.1787125443875084
21
66.5295855400111549
31
0.0000000000000009
0
LINE
330
1
100
AcDbEntity
8
Cut
6
CONTINUOUS
62
5
370
0
100
AcDbLine
10
844.1787125443875084
20
66.5295855400111549
30
0.0000000000000009
11
852.1987125443874902
21
66.5295855400111549
31
0.0000000000000014
0
LINE
330
1
100
AcDbEntity
8
Cut
6
CONTINUOUS
62
5
370
0
100
AcDbLine
10
852.1987125443874902
20
66.5295855400111549
30
0.0000000000000014
11
852.1987125443874902
21
60.0095855400111375
31
0.0000000000000014
0
LINE
330
1
100
AcDbEntity
8
Cut
6
CONTINUOUS
62
5
370
0
100
AcDbLine
10
890.3689221014731174
20
71.2496019796808753
30
0.0000000000000037
11
895.3635318706087673
21
75.4405771948370756
31
0.0000000000000041
0
LINE
330
1
100
AcDbEntity
8
Cut
6
CONTINUOUS
62
5
370
0
100
AcDbLine
10
895.3635318706087673
20
75.4405771948370756
30
0.0000000000000041
11
900.5186885002948429
21
69.2969007610228402
31
0.0000000000000044
0
LINE
330
1
100
AcDbEntity
8
Cut
6
CONTINUOUS
62
5
370
0
100
AcDbLine
10
900.5186885002948429
20
69.2969007610228402
30
0.0000000000000044
11
895.5240787311590793
21
65.1059255458666399
31
0.0000000000000041
0
LINE
330
1
100
AcDbEntity
8
Cut
6
CONTINUOUS
62
5
370
0
100
AcDbLine
10
895.5240787311590793
20
65.1059255458666399
30
0.0000000000000041
11
890.3689221014731174
21
71.2496019796808753
31
0.0000000000000037
0
LINE
330
1
100
AcDbEntity
8
Cut
6
CONTINUOUS
62
5
370
0
100
AcDbLine
10
867.2527534517407730
20
62.2699835603304948
30
0.0000000000000023
11
862.2581436826051231
21
58.0790083451742944
31
0.0000000000000020
0
LINE
330
1
100
AcDbEntity
8
Cut
6
CONTINUOUS
62
5
370
0
100
AcDbLine
10
862.2581436826050094
20
58.0790083451743087
30
0.0000000000000020
11
857.1029870529190475
21
64.2226847789885227
31
0.0000000000000017
0
LINE
330
1
100
AcDbEntity
8
Cut
6
CONTINUOUS
62
5
370
0
100
AcDbLine
10
857.1029870529190475
20
64.2226847789885227
30
0.0000000000000017
11
862.0975968220548111
21
68.4136599941447230
31
0.0000000000000020
0
LINE
330
1
100
AcDbEntity
8
Cut
6
CONTINUOUS
62
5
370
0
100
AcDbLine
10
862.0975968220548111
20
68.4136599941447230
30
0.0000000000000020
11
867.2527534517407730
21
62.2699835603305019
31
0.0000000000000023
0
LINE
330
1
100
AcDbEntity
8
Cut
6
CONTINUOUS
62
5
370
0
100
AcDbLine
10
890.2340867453103783
20
81.5536118509265435
30
0.0000000000000037
11
885.2394769761745010
21
77.3626366357703432
31
0.0000000000000034
0
LINE
330
1
100
AcDbEntity
8
Cut
6
CONTINUOUS
62
5
370
0
100
AcDbLine
10
885.2394769761745010
20
77.3626366357703432
30
0.0000000000000034
11
880.0843203464885391
21
83.5063130695845786
31
0.0000000000000031
0
LINE
330
1
100
AcDbEntity
8
Cut
6
CONTINUOUS
62
5
370
0
100
AcDbLine
10
880.0843203464885391
20
83.5063130695845786
30
0.0000000000000031
11
885.0789301156243027
21
87.6972882847407789
31
0.0000000000000034
0
LINE
330
1
100
AcDbEntity
8
Cut
6
CONTINUOUS
62
5
370
0
100
AcDbLine
10
885.0789301156243027
20
87.6972882847407789
30
0.0000000000000034
11
890.2340867453103783
21
81.5536118509265435
31
0.0000000000000037
0
LINE
330
1
100
AcDbEntity
8
Cut
6
CONTINUOUS
62
5
370
0
100
AcDbLine
10
867.3875888079035121
20
51.9659736890848265
30
0.0000000000000023
11
872.3821985770393894
21
56.1569489042410268
31
0.0000000000000026
0
LINE
330
1
100
AcDbEntity
8
Cut
6
CONTINUOUS
62
5
370
0
100
AcDbLine
10
872.3821985770393894
20
56.1569489042410268
30
0.0000000000000026
11
877.5373552067253513
21
50.0132724704267915
31
0.0000000000000030
0
LINE
330
1
100
AcDbEntity
8
Cut
6
CONTINUOUS
62
5
370
0
100
AcDbLine
10
877.5373552067253513
20
50.0132724704267915
30
0.0000000000000030
11
872.5427454375895877
21
45.8222972552705912
31
0.0000000000000027
0
LINE
330
1
100
AcDbEntity
8
Cut
6
CONTINUOUS
62
5
370
0
100
AcDbLine
10
872.5427454375895877
20
45.8222972552705912
30
0.0000000000000027
11
867.3875888079035121
21
51.9659736890848265
31
0.0000000000000023
0
LINE
330
1
100
AcDbEntity
8
Cut
6
CONTINUOUS
62
5
370
0
100
AcDbLine
10
897.4999999999998863
20
312.0000000000001705
30
0.0000000000000000
11
842.4999999999997726
21
312.0000000000000000
31
0.0000000000000000
0
LINE
330
1
100
AcDbEntity
8
Cut
6
CONTINUOUS
62
5
370
0
100
AcDbLine
10
842.4999999999997726
20
312.0000000000000000
30
0.0000000000000000
11
842.4999999999994316
21
432.0000000000000000
31
-0.0000000000000069
0
LINE
330
1
100
AcDbEntity
8
Cut
6
CONTINUOUS
62
5
370
0
100
AcDbLine
10
842.4999999999994316
20
432.0000000000000000
30
-0.0000000000000069
11
897.4999999999995453
21
432.0000000000001705
31
-0.0000000000000069
0
LINE
330
1
100
AcDbEntity
8
Cut
6
CONTINUOUS
62
5
370
0
100
AcDbLine
10
897.4999999999995453
20
432.0000000000001705
30
-0.0000000000000069
11
897.4999999999998863
21
312.0000000000001705
31
0.0000000000000000
0
SPLINE
8
Cut
6
CONTINUOUS
62
5
370
0
100
AcDbEntity
100
AcDbSpline
70
0
71
3
72
11
73
7
74
0
40
0.0000000000000000
40
0.0000000000000000
40
0.0000000000000000
40
0.0000000000000000
40
0.2550128614937208
40
0.5100257229874404
40
0.7650385844811605
40
1.0000000000000000
40
1.0000000000000000
40
1.0000000000000000
40
1.0000000000000000
10
844.9999999999995453
20
422.0000000000000000
30
-0.0000000000000069
10
845.0782922286579151
20
422.6684569491695243
30
-0.0000000000000087
10
845.2348766859748821
20
424.0053708475088001
30
-0.0000000000000087
10
846.4364932560980606
20
425.6795688703388123
30
-0.0000000000000052
10
848.1019654438182442
20
426.7949897845454643
30
-0.0000000000000087
10
849.3848214529662073
20
426.9335534297520667
30
-0.0000000000000087
10
849.9999999999994316
20
427.0000000000000000
30
-0.0000000000000069
41
1.0000000000000000
41
1.0000000000000000
41
1.0000000000000000
41
1.0000000000000000
41
1.0000000000000000
41
1.0000000000000000
41
1.0000000000000000
0
LINE
330
1
100
AcDbEntity
8
Cut
6
CONTINUOUS
62
5
370
0
100
AcDbLine
10
849.9999999999994316
20
427.0000000000000000
30
-0.0000000000000069
11
862.4999999999995453
21
427.0000000000000568
31
-0.0000000000000069
0
SPLINE
8
Cut
6
CONTINUOUS
62
5
370
0
100
AcDbEntity
100
AcDbSpline
70
0
71
3
72
11
73
7
74
0
40
0.0000000000000000
40
0.0000000000000000
40
0.0000000000000000
40
0.0000000000000000
40
0.2550128614937202
40
0.5100257229874411
40
0.7650385844811615
40
1.0000000000000000
40
1.0000000000000000
40
1.0000000000000000
40
1.0000000000000000
10
862.4999999999995453
20
427.0000000000000568
30
-0.0000000000000069
10
863.1684569491691263
20
426.9217077713415733
30
-0.0000000000000052
10
864.5053708475081748
20
426.7651233140246632
30
-0.0000000000000069
10
866.1795688703383576
20
425.5635067439015415
30
-0.0000000000000069
10
867.2949897845450096
20
423.8980345561813579
30
-0.0000000000000052
10
867.4335534297515551
20
422.6151785470333380
30
-0.0000000000000087
10
867.4999999999995453
20
422.0000000000000568
30
-0.0000000000000069
41
1.0000000000000000
41
1.0000000000000000
41
1.0000000000000000
41
1.0000000000000000
41
1.0000000000000000
41
1.0000000000000000
41
1.0000000000000000
0
LINE
330
1
100
AcDbEntity
8
Cut
6
CONTINUOUS
62
5
370
0
100
AcDbLine
10
867.4999999999995453
20
422.0000000000000568
30
-0.0000000000000069
11
867.4999999999997726
21
365.0000000000000568
31
-0.0000000000000035
0
SPLINE
8
Cut
6
CONTINUOUS
62
5
370
0
100
AcDbEntity
100
AcDbSpline
70
0
71
3
72
11
73
7
74
0
40
0.0000000000000000
40
0.0000000000000000
40
0.0000000000000000
40
0.0000000000000000
40
0.2550128614937199
40
0.5100257229874404
40
0.7650385844811607
40
0.9999999999999999
40
0.9999999999999999
40
0.9999999999999999
40
0.9999999999999999
10
867.4999999999997726
20
365.0000000000000568
30
-0.0000000000000035
10
867.4217077713411754
20
364.3315430508304757
30
-0.0000000000000035
10
867.2651233140243221
20
362.9946291524913136
30
0.0000000000000000
10
866.0635067439012573
20
361.3204311296612445
30
-0.0000000000000052
10
864.3980345561810736
20
360.2050102154545925
30
0.0000000000000000
10
863.1151785470329969
20
360.0664465702479902
30
-0.0000000000000035
10
862.4999999999996589
20
360.0000000000000568
30
-0.0000000000000017
41
1.0000000000000000
41
1.0000000000000000
41
1.0000000000000000
41
1.0000000000000000
41
1.0000000000000000
41
1.0000000000000000
41
1.0000000000000000
0
LINE
330
1
100
AcDbEntity
8
Cut
6
CONTINUOUS
62
5
370
0
100
AcDbLine
10
862.4999999999996589
20
360.0000000000000568
30
-0.0000000000000035
11
849.9999999999996589
21
360.0000000000000000
31
-0.0000000000000035
0
SPLINE
8
Cut
6
CONTINUOUS
62
5
370
0
100
AcDbEntity
100
AcDbSpline
70
0
71
3
72
11
73
7
74
0
40
0.0000000000000000
40
0.0000000000000000
40
0.0000000000000000
40
0.0000000000000000
40
0.2550128614937199
40
0.5100257229874403
40
0.7650385844811607
40
0.9999999999999999
40
0.9999999999999999
40
0.9999999999999999
40
0.9999999999999999
10
849.9999999999996589
20
360.0000000000000000
30
-0.0000000000000035
10
849.3315430508301915
20
360.0782922286584835
30
-0.0000000000000035
10
847.9946291524909157
20
360.2348766859753937
30
-0.0000000000000052
10
846.3204311296608466
20
361.4364932560985721
30
0.0000000000000017
10
845.2050102154540809
20
363.1019654438187558
30
-0.0000000000000035
10
845.0664465702475354
20
364.3848214529667189
30
-0.0000000000000035
10
844.9999999999996589
20
365.0000000000000000
30
-0.0000000000000017
41
1.0000000000000000
41
1.0000000000000000
41
1.0000000000000000
41
1.0000000000000000
41
1.0000000000000000
41
1.0000000000000000
41
1.0000000000000000
0
LINE
330
1
100
AcDbEntity
8
Cut
6
CONTINUOUS
62
5
370
0
100
AcDbLine
10
844.9999999999996589
20
365.0000000000000000
30
-0.0000000000000035
11
844.9999999999995453
21
422.0000000000000000
31
-0.0000000000000069
0
LINE
330
1
100
AcDbEntity
8
Cut
6
CONTINUOUS
62
5
370
0
100
AcDbLine
10
889.9999999999996589
20
360.0000000000001705
30
-0.0000000000000035
11
877.4999999999997726
21
360.0000000000001137
31
-0.0000000000000035
0
SPLINE
8
Cut
6
CONTINUOUS
62
5
370
0
100
AcDbEntity
100
AcDbSpline
70
0
71
3
72
11
73
7
74
0
40
0.0000000000000000
40
0.0000000000000000
40
0.0000000000000000
40
0.0000000000000000
40
0.2550128614937204
40
0.5100257229874403
40
0.7650385844811607
40
1.0000000000000000
40
1.0000000000000000
40
1.0000000000000000
40
1.0000000000000000
10
877.4999999999997726
20
360.0000000000001137
30
-0.0000000000000035
10
876.8315430508300778
20
360.0782922286585404
30
-0.0000000000000035
10
875.4946291524910293
20
360.2348766859755074
30
-0.0000000000000017
10
873.8204311296608466
20
361.4364932560986290
30
-0.0000000000000052
10
872.7050102154541946
20
363.1019654438188127
30
-0.0000000000000069
10
872.5664465702476491
20
364.3848214529667757
30
-0.0000000000000052
10
872.4999999999997726
20
365.0000000000001137
30
-0.0000000000000035
41
1.0000000000000000
41
1.0000000000000000
41
1.0000000000000000
41
1.0000000000000000
41
1.0000000000000000
41
1.0000000000000000
41
1.0000000000000000
0
LINE
330
1
100
AcDbEntity
8
Cut
6
CONTINUOUS
62
5
370
0
100
AcDbLine
10
872.4999999999997726
20
365.0000000000001137
30
-0.0000000000000035
11
872.4999999999995453
21
422.0000000000000568
31
-0.0000000000000069
0
SPLINE
8
Cut
6
CONTINUOUS
62
5
370
0
100
AcDbEntity
100
AcDbSpline
70
0
71
3
72
11
73
7
74
0
40
0.0000000000000000
40
0.0000000000000000
40
0.0000000000000000
40
0.0000000000000000
40
0.2550128614937208
40
0.5100257229874406
40
0.7650385844811605
40
1.0000000000000000
40
1.0000000000000000
40
1.0000000000000000
40
1.0000000000000000
10
872.4999999999995453
20
422.0000000000000568
30
-0.0000000000000069
10
872.5782922286579151
20
422.6684569491696379
30
-0.0000000000000069
10
872.7348766859747684
20
424.0053708475088570
30
-0.0000000000000069
10
873.9364932560980606
20
425.6795688703388691
30
-0.0000000000000104
10
875.6019654438181306
20
426.7949897845455780
30
-0.0000000000000069
10
876.8848214529662073
20
426.9335534297521235
30
-0.0000000000000052
10
877.4999999999995453
20
427.0000000000001137
30
-0.0000000000000069
41
1.0000000000000000
41
1.0000000000000000
41
1.0000000000000000
41
1.0000000000000000
41
1.0000000000000000
41
1.0000000000000000
41
1.0000000000000000
0
LINE
330
1
100
AcDbEntity
8
Cut
6
CONTINUOUS
62
5
370
0
100
AcDbLine
10
877.4999999999995453
20
427.0000000000001137
30
-0.0000000000000069
11
889.9999999999994316
21
427.0000000000001705
31
-0.0000000000000069
0
SPLINE
8
Cut
6
CONTINUOUS
62
5
370
0
100
AcDbEntity
100
AcDbSpline
70
0
71
3
72
11
73
7
74
0
40
0.0000000000000000
40
0.0000000000000000
40
0.0000000000000000
40
0.0000000000000000
40
0.2550128614937206
40
0.5100257229874411
40
0.7650385844811615
40
1.0000000000000000
40
1.0000000000000000
40
1.0000000000000000
40
1.0000000000000000
10
889.9999999999994316
20
427.0000000000001705
30
-0.0000000000000069
10
890.6684569491691263
20
426.9217077713416302
30
-0.0000000000000069
10
892.0053708475082885
20
426.7651233140247200
30
-0.0000000000000087
10
893.6795688703382439
20
425.5635067439015984
30
-0.0000000000000069
10
894.7949897845450096
20
423.8980345561814147
30
-0.0000000000000052
10
894.9335534297515551
20
422.6151785470333948
30
-0.0000000000000087
10
894.9999999999994316
20
422.0000000000001705
30
-0.0000000000000069
41
1.0000000000000000
41
1.0000000000000000
41
1.0000000000000000
41
1.0000000000000000
41
1.0000000000000000
41
1.0000000000000000
41
1.0000000000000000
0
LINE
330
1
100
AcDbEntity
8
Cut
6
CONTINUOUS
62
5
370
0
100
AcDbLine
10
894.9999999999994316
20
422.0000000000001705
30
-0.0000000000000069
11
894.9999999999996589
21
365.0000000000001705
31
-0.0000000000000035
0
SPLINE
8
Cut
6
CONTINUOUS
62
5
370
0
100
AcDbEntity
100
AcDbSpline
70
0
71
3
72
11
73
7
74
0
40
0.0000000000000000
40
0.0000000000000000
40
0.0000000000000000
40
0.0000000000000000
40
0.2550128614937199
40
0.5100257229874404
40
0.7650385844811609
40
0.9999999999999999
40
0.9999999999999999
40
0.9999999999999999
40
0.9999999999999999
10
894.9999999999996589
20
365.0000000000001705
30
-0.0000000000000035
10
894.9217077713412891
20
364.3315430508305894
30
-0.0000000000000035
10
894.7651233140243221
20
362.9946291524914272
30
0.0000000000000000
10
893.5635067439011436
20
361.3204311296613582
30
-0.0000000000000087
10
891.8980345561809600
20
360.2050102154546494
30
0.0000000000000000
10
890.6151785470329969
20
360.0664465702480470
30
-0.0000000000000035
10
889.9999999999996589
20
360.0000000000001705
30
-0.0000000000000035
41
1.0000000000000000
41
1.0000000000000000
41
1.0000000000000000
41
1.0000000000000000
41
1.0000000000000000
41
1.0000000000000000
41
1.0000000000000000
0
LINE
330
1
100
AcDbEntity
8
Cut
6
CONTINUOUS
62
5
370
0
100
AcDbLine
10
894.9999999999997726
20
320.0000000000001705
30
0.0000000000000000
11
844.9999999999997726
21
320.0000000000000000
31
0.0000000000000000
0
LINE
330
1
100
AcDbEntity
8
Cut
6
CONTINUOUS
62
5
370
0
100
AcDbLine
10
844.9999999999997726
20
320.0000000000000000
30
0.0000000000000000
11
844.9999999999997726
21
355.0000000000000000
31
-0.0000000000000035
0
LINE
330
1
100
AcDbEntity
8
Cut
6
CONTINUOUS
62
5
370
0
100
AcDbLine
10
844.9999999999997726
20
355.0000000000000000
30
-0.0000000000000035
11
894.9999999999996589
21
355.0000000000001705
31
-0.0000000000000035
0
LINE
330
1
100
AcDbEntity
8
Cut
6
CONTINUOUS
62
5
370
0
100
AcDbLine
10
894.9999999999996589
20
355.0000000000001705
30
-0.0000000000000035
11
894.9999999999997726
21
320.0000000000001705
31
0.0000000000000000
0
LINE
330
1
100
AcDbEntity
8
Cut
6
CONTINUOUS
62
5
370
0
100
AcDbLine
10
949.3933982822015878
20
52.0116377609316345
30
-0.0000000000000028
11
959.9999999999998863
21
62.6182394787299614
31
-0.0000000000000021
0
LINE
330
1
100
AcDbEntity
8
Cut
6
CONTINUOUS
62
5
370
0
100
AcDbLine
10
959.9999999999998863
20
62.6182394787299614
30
-0.0000000000000021
11
962.9999999999998863
21
62.6182394787299614
31
-0.0000000000000020
0
LINE
330
1
100
AcDbEntity
8
Cut
6
CONTINUOUS
62
5
370
0
100
AcDbLine
10
962.9999999999998863
20
62.6182394787299614
30
-0.0000000000000020
11
962.9999999999998863
21
68.1182394787299756
31
-0.0000000000000020
0
LINE
330
1
100
AcDbEntity
8
Cut
6
CONTINUOUS
62
5
370
0
100
AcDbLine
10
962.9999999999998863
20
68.1182394787299756
30
-0.0000000000000020
11
963.9999999999998863
21
69.1182394787299756
31
-0.0000000000000019
0
LINE
330
1
100
AcDbEntity
8
Cut
6
CONTINUOUS
62
5
370
0
100
AcDbLine
10
963.9999999999998863
20
69.1182394787299756
30
-0.0000000000000019
11
971.9999999999998863
21
69.1182394787300325
31
-0.0000000000000014
0
LINE
330
1
100
AcDbEntity
8
Cut
6
CONTINUOUS
62
5
370
0
100
AcDbLine
10
971.9999999999998863
20
69.1182394787300325
30
-0.0000000000000014
11
972.9999999999998863
21
68.1182394787300041
31
-0.0000000000000013
0
LINE
330
1
100
AcDbEntity
8
Cut
6
CONTINUOUS
62
5
370
0
100
AcDbLine
10
972.9999999999998863
20
68.1182394787300041
30
-0.0000000000000013
11
972.9999999999998863
21
62.6182394787300183
31
-0.0000000000000013
0
LINE
330
1
100
AcDbEntity
8
Cut
6
CONTINUOUS
62
5
370
0
100
AcDbLine
10
972.9999999999998863
20
62.6182394787300183
30
-0.0000000000000013
11
981.9999999999997726
21
62.6182394787300609
31
-0.0000000000000008
0
LINE
330
1
100
AcDbEntity
8
Cut
6
CONTINUOUS
62
5
370
0
100
AcDbLine
10
981.9999999999997726
20
62.6182394787300609
30
-0.0000000000000008
11
981.9999999999997726
21
68.1182394787300609
31
-0.0000000000000008
0
LINE
330
1
100
AcDbEntity
8
Cut
6
CONTINUOUS
62
5
370
0
100
AcDbLine
10
981.9999999999997726
20
68.1182394787300609
30
-0.0000000000000008
11
982.9999999999997726
21
69.1182394787300751
31
-0.0000000000000007
0
LINE
330
1
100
AcDbEntity
8
Cut
6
CONTINUOUS
62
5
370
0
100
AcDbLine
10
982.9999999999997726
20
69.1182394787300751
30
-0.0000000000000007
11
990.9999999999997726
21
69.1182394787301035
31
-0.0000000000000002
0
LINE
330
1
100
AcDbEntity
8
Cut
6
CONTINUOUS
62
5
370
0
100
AcDbLine
10
990.9999999999997726
20
69.1182394787301035
30
-0.0000000000000002
11
991.9999999999997726
21
68.1182394787301035
31
-0.0000000000000002
0
LINE
330
1
100
AcDbEntity
8
Cut
6
CONTINUOUS
62
5
370
0
100
AcDbLine
10
991.9999999999997726
20
68.1182394787301035
30
-0.0000000000000002
11
991.9999999999997726
21
62.6182394787301035
31
-0.0000000000000002
0
LINE
330
1
100
AcDbEntity
8
Cut
6
CONTINUOUS
62
5
370
0
100
AcDbLine
10
991.9999999999997726
20
62.6182394787301035
30
-0.0000000000000002
11
994.9999999999997726
21
62.6182394787301320
31
0.0000000000000000
0
LINE
330
1
100
AcDbEntity
8
Cut
6
CONTINUOUS
62
5
370
0
100
AcDbLine
10
994.9999999999997726
20
62.6182394787301320
30
0.0000000000000000
11
995.0000000000000000
21
22.1182394787301284
31
0.0000000000000000
0
LINE
330
1
100
AcDbEntity
8
Cut
6
CONTINUOUS
62
5
370
0
100
AcDbLine
10
995.0000000000000000
20
22.1182394787301284
30
0.0000000000000000
11
992.0000000000000000
21
22.1182394787301142
31
-0.0000000000000002
0
LINE
330
1
100
AcDbEntity
8
Cut
6
CONTINUOUS
62
5
370
0
100
AcDbLine
10
992.0000000000000000
20
22.1182394787301142
30
-0.0000000000000002
11
992.0000000000000000
21
16.6182394787301035
31
-0.0000000000000002
0
LINE
330
1
100
AcDbEntity
8
Cut
6
CONTINUOUS
62
5
370
0
100
AcDbLine
10
992.0000000000000000
20
16.6182394787301071
30
-0.0000000000000002
11
991.0000000000000000
21
15.6182394787301053
31
-0.0000000000000002
0
LINE
330
1
100
AcDbEntity
8
Cut
6
CONTINUOUS
62
5
370
0
100
AcDbLine
10
991.0000000000000000
20
15.6182394787301035
30
-0.0000000000000002
11
983.0000000000000000
21
15.6182394787300680
31
-0.0000000000000007
0
LINE
330
1
100
AcDbEntity
8
Cut
6
CONTINUOUS
62
5
370
0
100
AcDbLine
10
983.0000000000000000
20
15.6182394787300680
30
-0.0000000000000007
11
982.0000000000000000
21
16.6182394787300645
31
-0.0000000000000008
0
LINE
330
1
100
AcDbEntity
8
Cut
6
CONTINUOUS
62
5
370
0
100
AcDbLine
10
982.0000000000000000
20
16.6182394787300645
30
-0.0000000000000008
11
982.0000000000000000
21
22.1182394787300574
31
-0.0000000000000008
0
LINE
330
1
100
AcDbEntity
8
Cut
6
CONTINUOUS
62
5
370
0
100
AcDbLine
10
982.0000000000000000
20
22.1182394787300680
30
-0.0000000000000008
11
973.0000000000001137
21
22.1182394787300218
31
-0.0000000000000013
0
LINE
330
1
100
AcDbEntity
8
Cut
6
CONTINUOUS
62
5
370
0
100
AcDbLine
10
973.0000000000001137
20
22.1182394787300218
30
-0.0000000000000013
11
973.0000000000001137
21
16.6182394787300396
31
-0.0000000000000013
0
LINE
330
1
100
AcDbEntity
8
Cut
6
CONTINUOUS
62
5
370
0
100
AcDbLine
10
973.0000000000001137
20
16.6182394787300396
30
-0.0000000000000013
11
972.0000000000001137
21
15.6182394787300201
31
-0.0000000000000014
0
LINE
330
1
100
AcDbEntity
8
Cut
6
CONTINUOUS
62
5
370
0
100
AcDbLine
10
972.0000000000001137
20
15.6182394787300218
30
-0.0000000000000014
11
964.0000000000001137
21
15.6182394787299881
31
-0.0000000000000019
0
LINE
330
1
100
AcDbEntity
8
Cut
6
CONTINUOUS
62
5
370
0
100
AcDbLine
10
964.0000000000001137
20
15.6182394787299881
30
-0.0000000000000019
11
963.0000000000001137
21
16.6182394787299827
31
-0.0000000000000020
0
LINE
330
1
100
AcDbEntity
8
Cut
6
CONTINUOUS
62
5
370
0
100
AcDbLine
10
963.0000000000001137
20
16.6182394787299827
30
-0.0000000000000020
11
963.0000000000001137
21
22.1182394787299721
31
-0.0000000000000020
0
LINE
330
1
100
AcDbEntity
8
Cut
6
CONTINUOUS
62
5
370
0
100
AcDbLine
10
963.0000000000001137
20
22.1182394787299721
30
-0.0000000000000020
11
960.0000000000001137
21
22.1182394787299614
31
-0.0000000000000021
0
LINE
330
1
100
AcDbEntity
8
Cut
6
CONTINUOUS
62
5
370
0
100
AcDbLine
10
960.0000000000001137
20
22.1182394787299579
30
-0.0000000000000021
11
949.3933982822017015
21
32.7248411965281747
31
-0.0000000000000028
0
SPLINE
8
Cut
6
CONTINUOUS
62
5
370
0
100
AcDbEntity
100
AcDbSpline
70
0
71
3
72
11
73
7
74
0
40
0.0000000000000000
40
0.0000000000000000
40
0.0000000000000000
40
0.0000000000000000
40
0.0388184324355334
40
0.3592122882903555
40
0.6796061441451775
40
1.0000000000000000
40
1.0000000000000000
40
1.0000000000000000
40
1.0000000000000000
10
949.3933982822017015
20
32.7248411965281676
30
-0.0000000000000028
10
949.2955131845259302
20
32.8244779390976120
30
-0.0000000000000028
10
948.3897184957772879
20
33.7464817411728859
30
-0.0000000000000029
10
946.9256492539954024
20
35.7306871083544024
30
-0.0000000000000029
10
945.4849363308937882
20
38.9237602388592236
30
-0.0000000000000030
10
945.1822836483692072
20
41.2200797321063419
30
-0.0000000000000031
10
945.0309573071068598
20
42.3682394787298904
30
-0.0000000000000031
41
1.0000000000000000
41
1.0000000000000000
41
1.0000000000000000
41
1.0000000000000000
41
1.0000000000000000
41
1.0000000000000000
41
1.0000000000000000
0
SPLINE
8
Cut
6
CONTINUOUS
62
5
370
0
100
AcDbEntity
100
AcDbSpline
70
0
71
3
72
11
73
7
74
0
40
0.0000000000000000
40
0.0000000000000000
40
0.0000000000000000
40
0.0000000000000000
40
0.0388184324355324
40
0.3592122882903551
40
0.6796061441451775
40
1.0000000000000000
40
1.0000000000000000
40
1.0000000000000000
40
1.0000000000000000
10
945.0309573071068598
20
42.3682394787298904
30
-0.0000000000000031
10
945.0411619969822823
20
42.5075407246733334
30
-0.0000000000000031
10
945.1355926519950117
20
43.7965860615798377
30
-0.0000000000000031
10
945.6591972009815663
20
46.2062349904000413
30
-0.0000000000000030
10
947.1061466679863088
20
49.3964868587449786
30
-0.0000000000000029
10
948.6309810774631615
20
51.1399207935360920
30
-0.0000000000000028
10
949.3933982822015878
20
52.0116377609316345
30
-0.0000000000000028
41
1.0000000000000000
41
1.0000000000000000
41
1.0000000000000000
41
1.0000000000000000
41
1.0000000000000000
41
1.0000000000000000
41
1.0000000000000000
0
CIRCLE
8
Cut
6
CONTINUOUS
62
5
370
0
100
AcDbEntity
100
AcDbCircle
10
959.0000894809369356
20
42.3681943792084681
30
-0.0000000000000022
40
9.9999105191646045
0
SPLINE
8
Cut
6
CONTINUOUS
62
5
370
0
100
AcDbEntity
100
AcDbSpline
70
1
71
3
72
16
73
12
74
0
40
0.0000000000000000
40
0.0000000000000000
40
0.0000000000000000
40
0.0000000000000000
40
0.1167665069285531
40
0.2335330138571064
40
0.3502995207856597
40
0.4670660277142129
40
0.5838325346427660
40
0.7005990415713189
40
0.8173655484998723
40
0.9341320554284257
40
1.0000000000000000
40
1.0000000000000000
40
1.0000000000000000
40
1.0000000000000000
10
963.8644930449225967
20
27.0567973289381705
30
-0.0000000000000019
10
963.8618674908202593
20
26.6937907919756263
30
-0.0000000000000019
10
963.5837020274780116
20
25.9554161695087018
30
-0.0000000000000019
10
962.5311999371324418
20
25.4247566083944605
30
-0.0000000000000020
10
961.3945453824167089
20
25.7330860325296591
30
-0.0000000000000021
10
960.7574598644645221
20
26.7244576729008578
30
-0.0000000000000021
10
960.9490665075597917
20
27.8872055307094691
30
-0.0000000000000021
10
961.8701879271119424
20
28.6210896775511969
30
-0.0000000000000020
10
963.0468387728355992
20
28.5514261487756258
30
-0.0000000000000020
10
963.7496834817432045
20
27.8238942329805745
30
-0.0000000000000019
10
963.8659741190475643
20
27.2615691859090887
30
-0.0000000000000019
10
963.8644930449225967
20
27.0567973289381705
30
-0.0000000000000019
41
1.0000000000000000
41
1.0000000000000000
41
1.0000000000000000
41
1.0000000000000000
41
1.0000000000000000
41
1.0000000000000000
41
1.0000000000000000
41
1.0000000000000000
41
1.0000000000000000
41
1.0000000000000000
41
1.0000000000000000
41
1.0000000000000000
0
SPLINE
8
Cut
6
CONTINUOUS
62
5
370
0
100
AcDbEntity
100
AcDbSpline
70
1
71
3
72
16
73
12
74
0
40
0.0000000000000000
40
0.0000000000000000
40
0.0000000000000000
40
0.0000000000000000
40
0.1167665069285532
40
0.2335330138571065
40
0.3502995207856595
40
0.4670660277142129
40
0.5838325346427660
40
0.7005990415713194
40
0.8173655484998724
40
0.9341320554284257
40
1.0000000000000000
40
1.0000000000000000
40
1.0000000000000000
40
1.0000000000000000
10
969.7457997579306266
20
27.0567973289381918
30
-0.0000000000000015
10
969.7431742038281755
20
26.6937907919756547
30
-0.0000000000000015
10
969.4650087404859278
20
25.9554161695087302
30
-0.0000000000000016
10
968.4125066501404717
20
25.4247566083944889
30
-0.0000000000000016
10
967.2758520954247388
20
25.7330860325296911
30
-0.0000000000000017
10
966.6387665774725519
20
26.7244576729008827
30
-0.0000000000000017
10
966.8303732205677079
20
27.8872055307095010
30
-0.0000000000000017
10
967.7514946401198586
20
28.6210896775512218
30
-0.0000000000000017
10
968.9281454858436291
20
28.5514261487756507
30
-0.0000000000000016
10
969.6309901947512344
20
27.8238942329806029
30
-0.0000000000000016
10
969.7472808320555941
20
27.2615691859091172
30
-0.0000000000000015
10
969.7457997579306266
20
27.0567973289381918
30
-0.0000000000000015
41
1.0000000000000000
41
1.0000000000000000
41
1.0000000000000000
41
1.0000000000000000
41
1.0000000000000000
41
1.0000000000000000
41
1.0000000000000000
41
1.0000000000000000
41
1.0000000000000000
41
1.0000000000000000
41
1.0000000000000000
41
1.0000000000000000
0
SPLINE
8
Cut
6
CONTINUOUS
62
5
370
0
100
AcDbEntity
100
AcDbSpline
70
1
71
3
72
16
73
12
74
0
40
0.0000000000000000
40
0.0000000000000000
40
0.0000000000000000
40
0.0000000000000000
40
0.1167665069285534
40
0.2335330138571065
40
0.3502995207856598
40
0.4670660277142130
40
0.5838325346427659
40
0.7005990415713190
40
0.8173655484998723
40
0.9341320554284253
40
1.0000000000000000
40
1.0000000000000000
40
1.0000000000000000
40
1.0000000000000000
10
963.8644930449224830
20
57.6796816285217702
30
-0.0000000000000019
10
963.8618674908200319
20
57.3166750915592473
30
-0.0000000000000019
10
963.5837020274777842
20
56.5783004690923050
30
-0.0000000000000019
10
962.5311999371323282
20
56.0476409079780566
30
-0.0000000000000020
10
961.3945453824165952
20
56.3559703321132588
30
-0.0000000000000021
10
960.7574598644644084
20
57.3473419724844717
30
-0.0000000000000021
10
960.9490665075596780
20
58.5100898302930759
30
-0.0000000000000021
10
961.8701879271117150
20
59.2439739771348144
30
-0.0000000000000020
10
963.0468387728354855
20
59.1743104483592290
30
-0.0000000000000020
10
963.7496834817430909
20
58.4467785325641671
30
-0.0000000000000019
10
963.8659741190475643
20
57.8844534854926991
30
-0.0000000000000019
10
963.8644930449224830
20
57.6796816285217702
30
-0.0000000000000019
41
1.0000000000000000
41
1.0000000000000000
41
1.0000000000000000
41
1.0000000000000000
41
1.0000000000000000
41
1.0000000000000000
41
1.0000000000000000
41
1.0000000000000000
41
1.0000000000000000
41
1.0000000000000000
41
1.0000000000000000
41
1.0000000000000000
0
SPLINE
8
Cut
6
CONTINUOUS
62
5
370
0
100
AcDbEntity
100
AcDbSpline
70
1
71
3
72
16
73
12
74
0
40
0.0000000000000000
40
0.0000000000000000
40
0.0000000000000000
40
0.0000000000000000
40
0.1167665069285532
40
0.2335330138571065
40
0.3502995207856594
40
0.4670660277142126
40
0.5838325346427659
40
0.7005990415713191
40
0.8173655484998722
40
0.9341320554284256
40
1.0000000000000000
40
1.0000000000000000
40
1.0000000000000000
40
1.0000000000000000
10
966.8051464014265548
20
31.1006269293147710
30
-0.0000000000000017
10
966.8025208473242174
20
30.7376203923522304
30
-0.0000000000000017
10
966.5243553839819697
20
29.9992457698852988
30
-0.0000000000000017
10
965.4718532936363999
20
29.4685862087710611
30
-0.0000000000000018
10
964.3351987389206670
20
29.7769156329062596
30
-0.0000000000000019
10
963.6981132209685939
20
30.7682872732774548
30
-0.0000000000000019
10
963.8897198640636361
20
31.9310351310860696
30
-0.0000000000000019
10
964.8108412836159005
20
32.6649192779277939
30
-0.0000000000000018
10
965.9874921293395573
20
32.5952557491522228
30
-0.0000000000000018
10
966.6903368382471626
20
31.8677238333571680
30
-0.0000000000000017
10
966.8066274755515224
20
31.3053987862856857
30
-0.0000000000000017
10
966.8051464014265548
20
31.1006269293147710
30
-0.0000000000000017
41
1.0000000000000000
41
1.0000000000000000
41
1.0000000000000000
41
1.0000000000000000
41
1.0000000000000000
41
1.0000000000000000
41
1.0000000000000000
41
1.0000000000000000
41
1.0000000000000000
41
1.0000000000000000
41
1.0000000000000000
41
1.0000000000000000
0
SPLINE
8
Cut
6
CONTINUOUS
62
5
370
0
100
AcDbEntity
100
AcDbSpline
70
1
71
3
72
16
73
12
74
0
40
0.0000000000000000
40
0.0000000000000000
40
0.0000000000000000
40
0.0000000000000000
40
0.1167665069285534
40
0.2335330138571065
40
0.3502995207856598
40
0.4670660277142131
40
0.5838325346427660
40
0.7005990415713194
40
0.8173655484998723
40
0.9341320554284253
40
1.0000000000000000
40
1.0000000000000000
40
1.0000000000000000
40
1.0000000000000000
10
969.7457997579303992
20
57.6796816285217915
30
-0.0000000000000015
10
969.7431742038280618
20
57.3166750915592544
30
-0.0000000000000015
10
969.4650087404858141
20
56.5783004690923192
30
-0.0000000000000016
10
968.4125066501402443
20
56.0476409079780993
30
-0.0000000000000016
10
967.2758520954245114
20
56.3559703321132801
30
-0.0000000000000017
10
966.6387665774724383
20
57.3473419724845002
30
-0.0000000000000017
10
966.8303732205675942
20
58.5100898302930901
30
-0.0000000000000017
10
967.7514946401197449
20
59.2439739771348499
30
-0.0000000000000017
10
968.9281454858434017
20
59.1743104483592433
30
-0.0000000000000016
10
969.6309901947510070
20
58.4467785325642026
30
-0.0000000000000016
10
969.7472808320554805
20
57.8844534854927204
30
-0.0000000000000015
10
969.7457997579303992
20
57.6796816285217915
30
-0.0000000000000015
41
1.0000000000000000
41
1.0000000000000000
41
1.0000000000000000
41
1.0000000000000000
41
1.0000000000000000
41
1.0000000000000000
41
1.0000000000000000
41
1.0000000000000000
41
1.0000000000000000
41
1.0000000000000000
41
1.0000000000000000
41
1.0000000000000000
0
SPLINE
8
Cut
6
CONTINUOUS
62
5
370
0
100
AcDbEntity
100
AcDbSpline
70
1
71
3
72
16
73
12
74
0
40
0.0000000000000000
40
0.0000000000000000
40
0.0000000000000000
40
0.0000000000000000
40
0.1167665069285531
40
0.2335330138571064
40
0.3502995207856594
40
0.4670660277142127
40
0.5838325346427660
40
0.7005990415713194
40
0.8173655484998724
40
0.9341320554284255
40
1.0000000000000000
40
1.0000000000000000
40
1.0000000000000000
40
1.0000000000000000
10
975.6271064709385428
20
27.0567973289382238
30
-0.0000000000000012
10
975.6244809168362053
20
26.6937907919756832
30
-0.0000000000000012
10
975.3463154534939576
20
25.9554161695087551
30
-0.0000000000000012
10
974.2938133631483879
20
25.4247566083945138
30
-0.0000000000000013
10
973.1571588084326550
20
25.7330860325297124
30
-0.0000000000000013
10
972.5200732904804681
20
26.7244576729009111
30
-0.0000000000000014
10
972.7116799335756241
20
27.8872055307095259
30
-0.0000000000000014
10
973.6328013531278884
20
28.6210896775512502
30
-0.0000000000000013
10
974.8094521988515453
20
28.5514261487756755
30
-0.0000000000000012
10
975.5122969077590369
20
27.8238942329806278
30
-0.0000000000000012
10
975.6285875450635103
20
27.2615691859091456
30
-0.0000000000000012
10
975.6271064709385428
20
27.0567973289382238
30
-0.0000000000000012
41
1.0000000000000000
41
1.0000000000000000
41
1.0000000000000000
41
1.0000000000000000
41
1.0000000000000000
41
1.0000000000000000
41
1.0000000000000000
41
1.0000000000000000
41
1.0000000000000000
41
1.0000000000000000
41
1.0000000000000000
41
1.0000000000000000
0
SPLINE
8
Cut
6
CONTINUOUS
62
5
370
0
100
AcDbEntity
100
AcDbSpline
70
1
71
3
72
16
73
12
74
0
40
0.0000000000000000
40
0.0000000000000000
40
0.0000000000000000
40
0.0000000000000000
40
0.1167665069285531
40
0.2335330138571064
40
0.3502995207856598
40
0.4670660277142126
40
0.5838325346427659
40
0.7005990415713194
40
0.8173655484998723
40
0.9341320554284253
40
1.0000000000000000
40
1.0000000000000000
40
1.0000000000000000
40
1.0000000000000000
10
966.8051464014264411
20
53.6358520281452087
30
-0.0000000000000017
10
966.8025208473241037
20
53.2728454911826645
30
-0.0000000000000017
10
966.5243553839818560
20
52.5344708687157365
30
-0.0000000000000017
10
965.4718532936362863
20
52.0038113076014952
30
-0.0000000000000018
10
964.3351987389205533
20
52.3121407317366973
30
-0.0000000000000019
10
963.6981132209684802
20
53.3035123721079032
30
-0.0000000000000019
10
963.8897198640635224
20
54.4662602299165215
30
-0.0000000000000019
10
964.8108412836157868
20
55.2001443767582387
30
-0.0000000000000018
10
965.9874921293394436
20
55.1304808479826676
30
-0.0000000000000018
10
966.6903368382470489
20
54.4029489321876198
30
-0.0000000000000017
10
966.8066274755515224
20
53.8406238851161305
30
-0.0000000000000017
10
966.8051464014264411
20
53.6358520281452087
30
-0.0000000000000017
41
1.0000000000000000
41
1.0000000000000000
41
1.0000000000000000
41
1.0000000000000000
41
1.0000000000000000
41
1.0000000000000000
41
1.0000000000000000
41
1.0000000000000000
41
1.0000000000000000
41
1.0000000000000000
41
1.0000000000000000
41
1.0000000000000000
0
SPLINE
8
Cut
6
CONTINUOUS
62
5
370
0
100
AcDbEntity
100
AcDbSpline
70
1
71
3
72
16
73
12
74
0
40
0.0000000000000000
40
0.0000000000000000
40
0.0000000000000000
40
0.0000000000000000
40
0.1167665069285532
40
0.2335330138571065
40
0.3502995207856594
40
0.4670660277142126
40
0.5838325346427659
40
0.7005990415713191
40
0.8173655484998722
40
0.9341320554284256
40
1.0000000000000000
40
1.0000000000000000
40
1.0000000000000000
40
1.0000000000000000
10
972.6864531144345847
20
31.1006269293147994
30
-0.0000000000000014
10
972.6838275603321335
20
30.7376203923522588
30
-0.0000000000000014
10
972.4056620969898859
20
29.9992457698853272
30
-0.0000000000000014
10
971.3531600066444298
20
29.4685862087710859
30
-0.0000000000000014
10
970.2165054519286969
20
29.7769156329062881
30
-0.0000000000000015
10
969.5794199339763964
20
30.7682872732774833
30
-0.0000000000000016
10
969.7710265770716660
20
31.9310351310860980
30
-0.0000000000000015
10
970.6921479966239303
20
32.6649192779278223
30
-0.0000000000000015
10
971.8687988423475872
20
32.5952557491522512
30
-0.0000000000000014
10
972.5716435512551925
20
31.8677238333571964
30
-0.0000000000000014
10
972.6879341885595522
20
31.3053987862857142
30
-0.0000000000000014
10
972.6864531144345847
20
31.1006269293147994
30
-0.0000000000000014
41
1.0000000000000000
41
1.0000000000000000
41
1.0000000000000000
41
1.0000000000000000
41
1.0000000000000000
41
1.0000000000000000
41
1.0000000000000000
41
1.0000000000000000
41
1.0000000000000000
41
1.0000000000000000
41
1.0000000000000000
41
1.0000000000000000
0
SPLINE
8
Cut
6
CONTINUOUS
62
5
370
0
100
AcDbEntity
100
AcDbSpline
70
1
71
3
72
16
73
12
74
0
40
0.0000000000000000
40
0.0000000000000000
40
0.0000000000000000
40
0.0000000000000000
40
0.1167665069285532
40
0.2335330138571064
40
0.3502995207856596
40
0.4670660277142127
40
0.5838325346427660
40
0.7005990415713190
40
0.8173655484998723
40
0.9341320554284255
40
1.0000000000000000
40
1.0000000000000000
40
1.0000000000000000
40
1.0000000000000000
10
981.5084131839465726
20
27.0567973289382593
30
-0.0000000000000008
10
981.5057876298441215
20
26.6937907919757151
30
-0.0000000000000008
10
981.2276221665018738
20
25.9554161695087870
30
-0.0000000000000008
10
980.1751200761564178
20
25.4247566083945458
30
-0.0000000000000009
10
979.0384655214406848
20
25.7330860325297444
30
-0.0000000000000010
10
978.4013800034883843
20
26.7244576729009431
30
-0.0000000000000010
10
978.5929866465836540
20
27.8872055307095579
30
-0.0000000000000010
10
979.5141080661359183
20
28.6210896775512822
30
-0.0000000000000009
10
980.6907589118595752
20
28.5514261487757111
30
-0.0000000000000009
10
981.3936036207670668
20
27.8238942329806527
30
-0.0000000000000008
10
981.5098942580715402
20
27.2615691859091775
30
-0.0000000000000008
10
981.5084131839465726
20
27.0567973289382593
30
-0.0000000000000008
41
1.0000000000000000
41
1.0000000000000000
41
1.0000000000000000
41
1.0000000000000000
41
1.0000000000000000
41
1.0000000000000000
41
1.0000000000000000
41
1.0000000000000000
41
1.0000000000000000
41
1.0000000000000000
41
1.0000000000000000
41
1.0000000000000000
0
CIRCLE
8
Cut
6
CONTINUOUS
62
5
370
0
100
AcDbEntity
100
AcDbCircle
10
986.5001576416671014
20
29.3183972340832959
30
-0.0000000000000005
40
2.9998423624808481
0
SPLINE
8
Cut
6
CONTINUOUS
62
5
370
0
100
AcDbEntity
100
AcDbSpline
70
1
71
3
72
16
73
12
74
0
40
0.0000000000000000
40
0.0000000000000000
40
0.0000000000000000
40
0.0000000000000000
40
0.1167665069285530
40
0.2335330138571064
40
0.3502995207856594
40
0.4670660277142126
40
0.5838325346427660
40
0.7005990415713194
40
0.8173655484998724
40
0.9341320554284257
40
1.0000000000000000
40
1.0000000000000000
40
1.0000000000000000
40
1.0000000000000000
10
975.6271064709385428
20
35.1444565296913893
30
-0.0000000000000012
10
975.6244809168362053
20
34.7814499927288594
30
-0.0000000000000012
10
975.3463154534938440
20
34.0430753702619242
30
-0.0000000000000012
10
974.2938133631483879
20
33.5124158091476829
30
-0.0000000000000013
10
973.1571588084326550
20
33.8207452332828851
30
-0.0000000000000013
10
972.5200732904803544
20
34.8121168736540838
30
-0.0000000000000014
10
972.7116799335756241
20
35.9748647314626879
30
-0.0000000000000014
10
973.6328013531278884
20
36.7087488783044193
30
-0.0000000000000013
10
974.8094521988515453
20
36.6390853495288411
30
-0.0000000000000012
10
975.5122969077590369
20
35.9115534337338005
30
-0.0000000000000012
10
975.6285875450635103
20
35.3492283866623183
30
-0.0000000000000012
10
975.6271064709385428
20
35.1444565296913893
30
-0.0000000000000012
41
1.0000000000000000
41
1.0000000000000000
41
1.0000000000000000
41
1.0000000000000000
41
1.0000000000000000
41
1.0000000000000000
41
1.0000000000000000
41
1.0000000000000000
41
1.0000000000000000
41
1.0000000000000000
41
1.0000000000000000
41
1.0000000000000000
0
SPLINE
8
Cut
6
CONTINUOUS
62
5
370
0
100
AcDbEntity
100
AcDbSpline
70
1
71
3
72
16
73
12
74
0
40
0.0000000000000000
40
0.0000000000000000
40
0.0000000000000000
40
0.0000000000000000
40
0.1167665069285531
40
0.2335330138571064
40
0.3502995207856598
40
0.4670660277142126
40
0.5838325346427659
40
0.7005990415713194
40
0.8173655484998723
40
0.9341320554284257
40
1.0000000000000000
40
1.0000000000000000
40
1.0000000000000000
40
1.0000000000000000
10
975.6271064709384291
20
49.5920224277686614
30
-0.0000000000000012
10
975.6244809168360916
20
49.2290158908061102
30
-0.0000000000000012
10
975.3463154534938440
20
48.4906412683391892
30
-0.0000000000000012
10
974.2938133631482742
20
47.9599817072249479
30
-0.0000000000000013
10
973.1571588084325413
20
48.2683111313601430
30
-0.0000000000000013
10
972.5200732904803544
20
49.2596827717313559
30
-0.0000000000000014
10
972.7116799335755104
20
50.4224306295399671
30
-0.0000000000000014
10
973.6328013531277747
20
51.1563147763816914
30
-0.0000000000000013
10
974.8094521988514316
20
51.0866512476061132
30
-0.0000000000000012
10
975.5122969077590369
20
50.3591193318110868
30
-0.0000000000000012
10
975.6285875450635103
20
49.7967942847395832
30
-0.0000000000000012
10
975.6271064709384291
20
49.5920224277686614
30
-0.0000000000000012
41
1.0000000000000000
41
1.0000000000000000
41
1.0000000000000000
41
1.0000000000000000
41
1.0000000000000000
41
1.0000000000000000
41
1.0000000000000000
41
1.0000000000000000
41
1.0000000000000000
41
1.0000000000000000
41
1.0000000000000000
41
1.0000000000000000
0
SPLINE
8
Cut
6
CONTINUOUS
62
5
370
0
100
AcDbEntity
100
AcDbSpline
70
1
71
3
72
16
73
12
74
0
40
0.0000000000000000
40
0.0000000000000000
40
0.0000000000000000
40
0.0000000000000000
40
0.1167665069285532
40
0.2335330138571065
40
0.3502995207856594
40
0.4670660277142126
40
0.5838325346427659
40
0.7005990415713191
40
0.8173655484998722
40
0.9341320554284256
40
1.0000000000000000
40
1.0000000000000000
40
1.0000000000000000
40
1.0000000000000000
10
978.5677598274425009
20
31.1006269293148243
30
-0.0000000000000010
10
978.5651342733401634
20
30.7376203923522873
30
-0.0000000000000010
10
978.2869688099979157
20
29.9992457698853592
30
-0.0000000000000010
10
977.2344667196524597
20
29.4685862087711179
30
-0.0000000000000011
10
976.0978121649366130
20
29.7769156329063200
30
-0.0000000000000012
10
975.4607266469844262
20
30.7682872732775117
30
-0.0000000000000012
10
975.6523332900796959
20
31.9310351310861229
30
-0.0000000000000012
10
976.5734547096318465
20
32.6649192779278508
30
-0.0000000000000011
10
977.7501055553555034
20
32.5952557491522796
30
-0.0000000000000011
10
978.4529502642629950
20
31.8677238333572248
30
-0.0000000000000010
10
978.5692409015675821
20
31.3053987862857426
30
-0.0000000000000010
10
978.5677598274425009
20
31.1006269293148243
30
-0.0000000000000010
41
1.0000000000000000
41
1.0000000000000000
41
1.0000000000000000
41
1.0000000000000000
41
1.0000000000000000
41
1.0000000000000000
41
1.0000000000000000
41
1.0000000000000000
41
1.0000000000000000
41
1.0000000000000000
41
1.0000000000000000
41
1.0000000000000000
0
SPLINE
8
Cut
6
CONTINUOUS
62
5
370
0
100
AcDbEntity
100
AcDbSpline
70
1
71
3
72
16
73
12
74
0
40
0.0000000000000000
40
0.0000000000000000
40
0.0000000000000000
40
0.0000000000000000
40
0.1167665069285534
40
0.2335330138571065
40
0.3502995207856598
40
0.4670660277142131
40
0.5838325346427660
40
0.7005990415713194
40
0.8173655484998723
40
0.9341320554284253
40
1.0000000000000000
40
1.0000000000000000
40
1.0000000000000000
40
1.0000000000000000
10
975.6271064709384291
20
57.6796816285218199
30
-0.0000000000000012
10
975.6244809168360916
20
57.3166750915592829
30
-0.0000000000000012
10
975.3463154534937303
20
56.5783004690923477
30
-0.0000000000000012
10
974.2938133631482742
20
56.0476409079781277
30
-0.0000000000000013
10
973.1571588084325413
20
56.3559703321133014
30
-0.0000000000000013
10
972.5200732904802408
20
57.3473419724845286
30
-0.0000000000000014
10
972.7116799335755104
20
58.5100898302931185
30
-0.0000000000000014
10
973.6328013531277747
20
59.2439739771348783
30
-0.0000000000000013
10
974.8094521988514316
20
59.1743104483592717
30
-0.0000000000000012
10
975.5122969077590369
20
58.4467785325642311
30
-0.0000000000000012
10
975.6285875450633966
20
57.8844534854927488
30
-0.0000000000000012
10
975.6271064709384291
20
57.6796816285218199
30
-0.0000000000000012
41
1.0000000000000000
41
1.0000000000000000
41
1.0000000000000000
41
1.0000000000000000
41
1.0000000000000000
41
1.0000000000000000
41
1.0000000000000000
41
1.0000000000000000
41
1.0000000000000000
41
1.0000000000000000
41
1.0000000000000000
41
1.0000000000000000
0
SPLINE
8
Cut
6
CONTINUOUS
62
5
370
0
100
AcDbEntity
100
AcDbSpline
70
1
71
3
72
16
73
12
74
0
40
0.0000000000000000
40
0.0000000000000000
40
0.0000000000000000
40
0.0000000000000000
40
0.1167665069285531
40
0.2335330138571064
40
0.3502995207856598
40
0.4670660277142126
40
0.5838325346427659
40
0.7005990415713194
40
0.8173655484998723
40
0.9341320554284253
40
1.0000000000000000
40
1.0000000000000000
40
1.0000000000000000
40
1.0000000000000000
10
972.6864531144344710
20
53.6358520281452371
30
-0.0000000000000014
10
972.6838275603321335
20
53.2728454911826930
30
-0.0000000000000014
10
972.4056620969897722
20
52.5344708687157649
30
-0.0000000000000014
10
971.3531600066443161
20
52.0038113076015236
30
-0.0000000000000014
10
970.2165054519285832
20
52.3121407317367257
30
-0.0000000000000015
10
969.5794199339762827
20
53.3035123721079316
30
-0.0000000000000016
10
969.7710265770715523
20
54.4662602299165499
30
-0.0000000000000015
10
970.6921479966238167
20
55.2001443767582600
30
-0.0000000000000015
10
971.8687988423474735
20
55.1304808479826960
30
-0.0000000000000014
10
972.5716435512550788
20
54.4029489321876483
30
-0.0000000000000014
10
972.6879341885594386
20
53.8406238851161589
30
-0.0000000000000014
10
972.6864531144344710
20
53.6358520281452371
30
-0.0000000000000014
41
1.0000000000000000
41
1.0000000000000000
41
1.0000000000000000
41
1.0000000000000000
41
1.0000000000000000
41
1.0000000000000000
41
1.0000000000000000
41
1.0000000000000000
41
1.0000000000000000
41
1.0000000000000000
41
1.0000000000000000
41
1.0000000000000000
0
CIRCLE
8
Cut
6
CONTINUOUS
62
5
370
0
100
AcDbEntity
100
AcDbCircle
10
981.9999509797831934
20
42.3684271096817469
30
-0.0000000000000008
40
5.9999509827170359
0
CIRCLE
8
Cut
6
CONTINUOUS
62
5
370
0
100
AcDbEntity
100
AcDbCircle
10
986.4998423583327849
20
55.4180817233768792
30
-0.0000000000000005
40
2.9998423624809591
0
SPLINE
8
Cut
6
CONTINUOUS
62
5
370
0
100
AcDbEntity
100
AcDbSpline
70
1
71
3
72
16
73
12
74
0
40
0.0000000000000000
40
0.0000000000000000
40
0.0000000000000000
40
0.0000000000000000
40
0.1167665069285534
40
0.2335330138571065
40
0.3502995207856598
40
0.4670660277142131
40
0.5838325346427660
40
0.7005990415713191
40
0.8173655484998723
40
0.9341320554284253
40
1.0000000000000000
40
1.0000000000000000
40
1.0000000000000000
40
1.0000000000000000
10
981.5084131839463453
20
57.6796816285218483
30
-0.0000000000000008
10
981.5057876298440078
20
57.3166750915593113
30
-0.0000000000000008
10
981.2276221665017601
20
56.5783004690923761
30
-0.0000000000000008
10
980.1751200761563041
20
56.0476409079781561
30
-0.0000000000000009
10
979.0384655214405711
20
56.3559703321133298
30
-0.0000000000000010
10
978.4013800034882706
20
57.3473419724845570
30
-0.0000000000000010
10
978.5929866465835403
20
58.5100898302931682
30
-0.0000000000000010
10
979.5141080661356909
20
59.2439739771348783
30
-0.0000000000000009
10
980.6907589118594615
20
59.1743104483593072
30
-0.0000000000000009
10
981.3936036207669531
20
58.4467785325642595
30
-0.0000000000000008
10
981.5098942580714265
20
57.8844534854927701
30
-0.0000000000000008
10
981.5084131839463453
20
57.6796816285218483
30
-0.0000000000000008
41
1.0000000000000000
41
1.0000000000000000
41
1.0000000000000000
41
1.0000000000000000
41
1.0000000000000000
41
1.0000000000000000
41
1.0000000000000000
41
1.0000000000000000
41
1.0000000000000000
41
1.0000000000000000
41
1.0000000000000000
41
1.0000000000000000
0
SPLINE
8
Cut
6
CONTINUOUS
62
5
370
0
100
AcDbEntity
100
AcDbSpline
70
1
71
3
72
16
73
12
74
0
40
0.0000000000000000
40
0.0000000000000000
40
0.0000000000000000
40
0.0000000000000000
40
0.1167665069285531
40
0.2335330138571064
40
0.3502995207856598
40
0.4670660277142126
40
0.5838325346427659
40
0.7005990415713194
40
0.8173655484998723
40
0.9341320554284253
40
1.0000000000000000
40
1.0000000000000000
40
1.0000000000000000
40
1.0000000000000000
10
978.5677598274423872
20
53.6358520281452584
30
-0.0000000000000010
10
978.5651342733400497
20
53.2728454911827214
30
-0.0000000000000010
10
978.2869688099978021
20
52.5344708687157933
30
-0.0000000000000010
10
977.2344667196522323
20
52.0038113076015520
30
-0.0000000000000011
10
976.0978121649364994
20
52.3121407317367542
30
-0.0000000000000012
10
975.4607266469843125
20
53.3035123721079600
30
-0.0000000000000012
10
975.6523332900794685
20
54.4662602299165712
30
-0.0000000000000012
10
976.5734547096317328
20
55.2001443767582884
30
-0.0000000000000011
10
977.7501055553553897
20
55.1304808479827244
30
-0.0000000000000011
10
978.4529502642628813
20
54.4029489321876767
30
-0.0000000000000010
10
978.5692409015674684
20
53.8406238851161874
30
-0.0000000000000010
10
978.5677598274423872
20
53.6358520281452584
30
-0.0000000000000010
41
1.0000000000000000
41
1.0000000000000000
41
1.0000000000000000
41
1.0000000000000000
41
1.0000000000000000
41
1.0000000000000000
41
1.0000000000000000
41
1.0000000000000000
41
1.0000000000000000
41
1.0000000000000000
41
1.0000000000000000
41
1.0000000000000000
0
LINE
330
1
100
AcDbEntity
8
Cut
6
CONTINUOUS
62
5
370
0
100
AcDbLine
10
932.2474455978723427
20
284.9690426928932538
30
-0.0000000000000017
11
933.2474455978723427
21
283.9690426928932538
31
-0.0000000000000017
0
LINE
330
1
100
AcDbEntity
8
Cut
6
CONTINUOUS
62
5
370
0
100
AcDbLine
10
933.2474455978723427
20
283.9690426928932538
30
-0.0000000000000017
11
933.2474455978723427
21
279.9690426928933107
31
-0.0000000000000017
0
LINE
330
1
100
AcDbEntity
8
Cut
6
CONTINUOUS
62
5
370
0
100
AcDbLine
10
933.2474455978723427
20
279.9690426928933107
30
-0.0000000000000017
11
932.2474455978723427
21
278.9690426928933107
31
-0.0000000000000017
0
LINE
330
1
100
AcDbEntity
8
Cut
6
CONTINUOUS
62
5
370
0
100
AcDbLine
10
932.2474455978723427
20
278.9690426928933107
30
-0.0000000000000017
11
926.7474455978722290
21
278.9690426928932538
31
-0.0000000000000017
0
LINE
330
1
100
AcDbEntity
8
Cut
6
CONTINUOUS
62
5
370
0
100
AcDbLine
10
926.7474455978722290
20
278.9690426928932538
30
-0.0000000000000017
11
926.7474455978722290
21
275.9690426928933107
31
-0.0000000000000017
0
LINE
330
1
100
AcDbEntity
8
Cut
6
CONTINUOUS
62
5
370
0
100
AcDbLine
10
926.7474455978722290
20
275.9690426928933107
30
-0.0000000000000017
11
916.1408438800740441
21
265.3624409750949553
31
-0.0000000000000026
0
SPLINE
8
Cut
6
CONTINUOUS
62
5
370
0
100
AcDbEntity
100
AcDbSpline
70
0
71
3
72
11
73
7
74
0
40
0.0000000000000000
40
0.0000000000000000
40
0.0000000000000000
40
0.0000000000000000
40
0.0388184324355324
40
0.3592122882903549
40
0.6796061441451773
40
1.0000000000000000
40
1.0000000000000000
40
1.0000000000000000
40
1.0000000000000000
10
916.1408438800740441
20
265.3624409750949553
30
-0.0000000000000026
10
916.0412071375045571
20
265.2645558774191841
30
-0.0000000000000026
10
915.1192033354292334
20
264.3587611886705417
30
-0.0000000000000017
10
913.1349979682477169
20
262.8946919468887131
30
-0.0000000000000043
10
909.9419248377429312
20
261.4539790237870989
30
-0.0000000000000035
10
907.6456053444958343
20
261.1513263412624610
30
-0.0000000000000035
10
906.4974455978722290
20
261.0000000000001137
30
-0.0000000000000035
41
1.0000000000000000
41
1.0000000000000000
41
1.0000000000000000
41
1.0000000000000000
41
1.0000000000000000
41
1.0000000000000000
41
1.0000000000000000
0
SPLINE
8
Cut
6
CONTINUOUS
62
5
370
0
100
AcDbEntity
100
AcDbSpline
70
0
71
3
72
11
73
7
74
0
40
0.0000000000000000
40
0.0000000000000000
40
0.0000000000000000
40
0.0000000000000000
40
0.0388184324355324
40
0.3592122882903550
40
0.6796061441451773
40
1.0000000000000000
40
1.0000000000000000
40
1.0000000000000000
40
1.0000000000000000
10
906.4974455978722290
20
261.0000000000001137
30
-0.0000000000000035
10
906.3581443519288996
20
261.0102046898755930
30
-0.0000000000000035
10
905.0690990150222888
20
261.1046353448883224
30
-0.0000000000000009
10
902.6594500862021277
20
261.6282398938748202
30
-0.0000000000000035
10
899.4691982178571834
20
263.0751893608795626
30
-0.0000000000000026
10
897.7257642830660416
20
264.6000237703565290
30
-0.0000000000000017
10
896.8540473156705275
20
265.3624409750949553
30
-0.0000000000000017
41
1.0000000000000000
41
1.0000000000000000
41
1.0000000000000000
41
1.0000000000000000
41
1.0000000000000000
41
1.0000000000000000
41
1.0000000000000000
0
LINE
330
1
100
AcDbEntity
8
Cut
6
CONTINUOUS
62
5
370
0
100
AcDbLine
10
896.8540473156705275
20
265.3624409750949553
30
-0.0000000000000026
11
886.2474455978722290
21
275.9690426928932538
31
-0.0000000000000017
0
LINE
330
1
100
AcDbEntity
8
Cut
6
CONTINUOUS
62
5
370
0
100
AcDbLine
10
886.2474455978722290
20
275.9690426928932538
30
-0.0000000000000017
11
886.2474455978722290
21
278.9690426928932538
31
-0.0000000000000017
0
LINE
330
1
100
AcDbEntity
8
Cut
6
CONTINUOUS
62
5
370
0
100
AcDbLine
10
886.2474455978722290
20
278.9690426928932538
30
-0.0000000000000017
11
880.7474455978722290
21
278.9690426928933107
31
-0.0000000000000017
0
LINE
330
1
100
AcDbEntity
8
Cut
6
CONTINUOUS
62
5
370
0
100
AcDbLine
10
880.7474455978722290
20
278.9690426928933107
30
-0.0000000000000017
11
879.7474455978722290
21
279.9690426928933107
31
-0.0000000000000017
0
LINE
330
1
100
AcDbEntity
8
Cut
6
CONTINUOUS
62
5
370
0
100
AcDbLine
10
879.7474455978722290
20
279.9690426928933107
30
-0.0000000000000017
11
879.7474455978722290
21
283.9690426928932538
31
-0.0000000000000017
0
LINE
330
1
100
AcDbEntity
8
Cut
6
CONTINUOUS
62
5
370
0
100
AcDbLine
10
879.7474455978722290
20
283.9690426928932538
30
-0.0000000000000017
11
880.7474455978722290
21
284.9690426928932538
31
-0.0000000000000017
0
LINE
330
1
100
AcDbEntity
8
Cut
6
CONTINUOUS
62
5
370
0
100
AcDbLine
10
880.7474455978722290
20
284.9690426928932538
30
-0.0000000000000017
11
886.2474455978722290
21
284.9690426928932538
31
-0.0000000000000017
0
LINE
330
1
100
AcDbEntity
8
Cut
6
CONTINUOUS
62
5
370
0
100
AcDbLine
10
886.2474455978722290
20
284.9690426928932538
30
-0.0000000000000017
11
886.2474455978722290
21
301.9690426928931970
31
-0.0000000000000009
0
LINE
330
1
100
AcDbEntity
8
Cut
6
CONTINUOUS
62
5
370
0
100
AcDbLine
10
886.2474455978722290
20
301.9690426928931970
30
-0.0000000000000009
11
880.7474455978723427
21
301.9690426928931970
31
-0.0000000000000009
0
LINE
330
1
100
AcDbEntity
8
Cut
6
CONTINUOUS
62
5
370
0
100
AcDbLine
10
880.7474455978723427
20
301.9690426928931970
30
-0.0000000000000009
11
879.7474455978723427
21
302.9690426928931970
31
-0.0000000000000009
0
LINE
330
1
100
AcDbEntity
8
Cut
6
CONTINUOUS
62
5
370
0
100
AcDbLine
10
879.7474455978723427
20
302.9690426928931970
30
-0.0000000000000009
11
879.7474455978723427
21
306.9690426928931970
31
0.0000000000000000
0
LINE
330
1
100
AcDbEntity
8
Cut
6
CONTINUOUS
62
5
370
0
100
AcDbLine
10
879.7474455978723427
20
306.9690426928931970
30
0.0000000000000000
11
880.7474455978723427
21
307.9690426928931970
31
0.0000000000000000
0
LINE
330
1
100
AcDbEntity
8
Cut
6
CONTINUOUS
62
5
370
0
100
AcDbLine
10
880.7474455978723427
20
307.9690426928931970
30
0.0000000000000000
11
886.2474455978722290
21
307.9690426928931970
31
0.0000000000000000
0
LINE
330
1
100
AcDbEntity
8
Cut
6
CONTINUOUS
62
5
370
0
100
AcDbLine
10
886.2474455978722290
20
307.9690426928931970
30
0.0000000000000000
11
886.2474455978722290
21
310.9690426928931970
31
0.0000000000000000
0
LINE
330
1
100
AcDbEntity
8
Cut
6
CONTINUOUS
62
5
370
0
100
AcDbLine
10
886.2474455978722290
20
310.9690426928931970
30
0.0000000000000000
11
926.7474455978722290
21
310.9690426928931970
31
0.0000000000000000
0
LINE
330
1
100
AcDbEntity
8
Cut
6
CONTINUOUS
62
5
370
0
100
AcDbLine
10
926.7474455978722290
20
310.9690426928931970
30
0.0000000000000000
11
926.7474455978722290
21
307.9690426928931970
31
0.0000000000000000
0
LINE
330
1
100
AcDbEntity
8
Cut
6
CONTINUOUS
62
5
370
0
100
AcDbLine
10
926.7474455978722290
20
307.9690426928931970
30
0.0000000000000000
11
932.2474455978723427
21
307.9690426928931970
31
0.0000000000000000
0
LINE
330
1
100
AcDbEntity
8
Cut
6
CONTINUOUS
62
5
370
0
100
AcDbLine
10
932.2474455978723427
20
307.9690426928931970
30
0.0000000000000000
11
933.2474455978723427
21
306.9690426928931970
31
0.0000000000000000
0
LINE
330
1
100
AcDbEntity
8
Cut
6
CONTINUOUS
62
5
370
0
100
AcDbLine
10
933.2474455978723427
20
306.9690426928931970
30
0.0000000000000000
11
933.2474455978723427
21
302.9690426928931970
31
-0.0000000000000009
0
LINE
330
1
100
AcDbEntity
8
Cut
6
CONTINUOUS
62
5
370
0
100
AcDbLine
10
933.2474455978723427
20
302.9690426928931970
30
-0.0000000000000009
11
932.2474455978723427
21
301.9690426928931970
31
-0.0000000000000009
0
LINE
330
1
100
AcDbEntity
8
Cut
6
CONTINUOUS
62
5
370
0
100
AcDbLine
10
932.2474455978723427
20
301.9690426928931970
30
-0.0000000000000009
11
926.7474455978722290
21
301.9690426928931970
31
-0.0000000000000009
0
LINE
330
1
100
AcDbEntity
8
Cut
6
CONTINUOUS
62
5
370
0
100
AcDbLine
10
926.7474455978722290
20
301.9690426928931970
30
-0.0000000000000009
11
926.7474455978722290
21
284.9690426928932538
31
-0.0000000000000017
0
LINE
330
1
100
AcDbEntity
8
Cut
6
CONTINUOUS
62
5
370
0
100
AcDbLine
10
926.7474455978722290
20
284.9690426928932538
30
-0.0000000000000017
11
932.2474455978723427
21
284.9690426928932538
31
-0.0000000000000017
0
CIRCLE
8
Cut
6
CONTINUOUS
62
5
370
0
100
AcDbEntity
100
AcDbCircle
10
919.5476033532254405
20
302.4688850512260956
30
-0.0000000000000009
40
2.9998423624809032
0
CIRCLE
8
Cut
6
CONTINUOUS
62
5
370
0
100
AcDbEntity
100
AcDbCircle
10
893.4472878425190174
20
302.4692003345602984
30
-0.0000000000000017
40
2.9998423624809032
0
CIRCLE
8
Cut
6
CONTINUOUS
62
5
370
0
100
AcDbEntity
100
AcDbCircle
10
906.4972579669206425
20
274.9689936726765040
30
-0.0000000000000026
40
5.9999509827170909
0
CIRCLE
8
Cut
6
CONTINUOUS
62
5
370
0
100
AcDbEntity
100
AcDbCircle
10
906.4972579669206425
20
297.9689936726765609
30
0.0000000000000009
40
5.9999509827170909
0
LINE
330
1
100
AcDbEntity
8
Cut
6
CONTINUOUS
62
5
370
0
100
AcDbLine
10
911.7582569139356110
20
428.0000000000000568
30
-0.0000000000000017
11
912.7582569139356110
21
429.0000000000000568
31
-0.0000000000000017
0
LINE
330
1
100
AcDbEntity
8
Cut
6
CONTINUOUS
62
5
370
0
100
AcDbLine
10
912.7582569139356110
20
429.0000000000000568
30
-0.0000000000000017
11
918.2582569139374300
21
429.0000000000000568
31
-0.0000000000000017
0
LINE
330
1
100
AcDbEntity
8
Cut
6
CONTINUOUS
62
5
370
0
100
AcDbLine
10
918.2582569139374300
20
429.0000000000000568
30
-0.0000000000000017
11
918.2582569139374300
21
432.0000000000000568
31
-0.0000000000000017
0
LINE
330
1
100
AcDbEntity
8
Cut
6
CONTINUOUS
62
5
370
0
100
AcDbLine
10
918.2582569139374300
20
432.0000000000000568
30
-0.0000000000000017
11
958.7582569139374300
21
432.0000000000001705
31
-0.0000000000000017
0
LINE
330
1
100
AcDbEntity
8
Cut
6
CONTINUOUS
62
5
370
0
100
AcDbLine
10
958.7582569139374300
20
432.0000000000001705
30
-0.0000000000000017
11
958.7582569139374300
21
429.0000000000001705
31
-0.0000000000000017
0
LINE
330
1
100
AcDbEntity
8
Cut
6
CONTINUOUS
62
5
370
0
100
AcDbLine
10
958.7582569139374300
20
429.0000000000001705
30
-0.0000000000000017
11
964.2582569139392490
21
429.0000000000002274
31
-0.0000000000000017
0
LINE
330
1
100
AcDbEntity
8
Cut
6
CONTINUOUS
62
5
370
0
100
AcDbLine
10
964.2582569139392490
20
429.0000000000002274
30
-0.0000000000000017
11
965.2582569139392490
21
428.0000000000002274
31
-0.0000000000000017
0
LINE
330
1
100
AcDbEntity
8
Cut
6
CONTINUOUS
62
5
370
0
100
AcDbLine
10
965.2582569139392490
20
428.0000000000002274
30
-0.0000000000000017
11
965.2582569139392490
21
422.0000000000002274
31
-0.0000000000000009
0
LINE
330
1
100
AcDbEntity
8
Cut
6
CONTINUOUS
62
5
370
0
100
AcDbLine
10
965.2582569139392490
20
422.0000000000002274
30
-0.0000000000000009
11
964.2582569139392490
21
421.0000000000002274
31
-0.0000000000000009
0
LINE
330
1
100
AcDbEntity
8
Cut
6
CONTINUOUS
62
5
370
0
100
AcDbLine
10
964.2582569139392490
20
421.0000000000002274
30
-0.0000000000000009
11
958.7582569139374300
21
421.0000000000002274
31
-0.0000000000000009
0
LINE
330
1
100
AcDbEntity
8
Cut
6
CONTINUOUS
62
5
370
0
100
AcDbLine
10
958.7582569139374300
20
421.0000000000002274
30
-0.0000000000000009
11
958.7582569139375437
21
413.0000000000002274
31
-0.0000000000000009
0
LINE
330
1
100
AcDbEntity
8
Cut
6
CONTINUOUS
62
5
370
0
100
AcDbLine
10
958.7582569139375437
20
413.0000000000002274
30
-0.0000000000000009
11
964.2582569139393627
21
413.0000000000002274
31
-0.0000000000000009
0
LINE
330
1
100
AcDbEntity
8
Cut
6
CONTINUOUS
62
5
370
0
100
AcDbLine
10
964.2582569139393627
20
413.0000000000002274
30
-0.0000000000000009
11
965.2582569139393627
21
412.0000000000002274
31
-0.0000000000000009
0
LINE
330
1
100
AcDbEntity
8
Cut
6
CONTINUOUS
62
5
370
0
100
AcDbLine
10
965.2582569139393627
20
412.0000000000002274
30
-0.0000000000000009
11
965.2582569139393627
21
406.0000000000001705
31
0.0000000000000000
0
LINE
330
1
100
AcDbEntity
8
Cut
6
CONTINUOUS
62
5
370
0
100
AcDbLine
10
965.2582569139393627
20
406.0000000000001705
30
0.0000000000000000
11
964.2582569139393627
21
405.0000000000001705
31
0.0000000000000000
0
LINE
330
1
100
AcDbEntity
8
Cut
6
CONTINUOUS
62
5
370
0
100
AcDbLine
10
964.2582569139393627
20
405.0000000000001705
30
0.0000000000000000
11
958.7582569139375437
21
405.0000000000001705
31
0.0000000000000000
0
LINE
330
1
100
AcDbEntity
8
Cut
6
CONTINUOUS
62
5
370
0
100
AcDbLine
10
958.7582569139375437
20
405.0000000000001705
30
0.0000000000000000
11
958.7582569139375437
21
402.0000000000001705
31
0.0000000000000000
0
LINE
330
1
100
AcDbEntity
8
Cut
6
CONTINUOUS
62
5
370
0
100
AcDbLine
10
958.7582569139375437
20
402.0000000000001705
30
0.0000000000000000
11
918.2582569139375437
21
402.0000000000000568
31
0.0000000000000000
0
LINE
330
1
100
AcDbEntity
8
Cut
6
CONTINUOUS
62
5
370
0
100
AcDbLine
10
918.2582569139375437
20
402.0000000000000568
30
0.0000000000000000
11
918.2582569139375437
21
405.0000000000000568
31
0.0000000000000000
0
LINE
330
1
100
AcDbEntity
8
Cut
6
CONTINUOUS
62
5
370
0
100
AcDbLine
10
918.2582569139375437
20
405.0000000000000568
30
0.0000000000000000
11
912.7582569139357247
21
405.0000000000000000
31
0.0000000000000000
0
LINE
330
1
100
AcDbEntity
8
Cut
6
CONTINUOUS
62
5
370
0
100
AcDbLine
10
912.7582569139357247
20
405.0000000000000000
30
0.0000000000000000
11
911.7582569139357247
21
406.0000000000000000
31
0.0000000000000000
0
LINE
330
1
100
AcDbEntity
8
Cut
6
CONTINUOUS
62
5
370
0
100
AcDbLine
10
911.7582569139357247
20
406.0000000000000000
30
0.0000000000000000
11
911.7582569139357247
21
412.0000000000000568
31
-0.0000000000000009
0
LINE
330
1
100
AcDbEntity
8
Cut
6
CONTINUOUS
62
5
370
0
100
AcDbLine
10
911.7582569139357247
20
412.0000000000000568
30
-0.0000000000000009
11
912.7582569139357247
21
413.0000000000000568
31
-0.0000000000000009
0
LINE
330
1
100
AcDbEntity
8
Cut
6
CONTINUOUS
62
5
370
0
100
AcDbLine
10
912.7582569139357247
20
413.0000000000000568
30
-0.0000000000000009
11
918.2582569139375437
21
413.0000000000000568
31
-0.0000000000000009
0
LINE
330
1
100
AcDbEntity
8
Cut
6
CONTINUOUS
62
5
370
0
100
AcDbLine
10
918.2582569139375437
20
413.0000000000000568
30
-0.0000000000000009
11
918.2582569139374300
21
421.0000000000000568
31
-0.0000000000000009
0
LINE
330
1
100
AcDbEntity
8
Cut
6
CONTINUOUS
62
5
370
0
100
AcDbLine
10
918.2582569139374300
20
421.0000000000000568
30
-0.0000000000000009
11
912.7582569139356110
21
421.0000000000000568
31
-0.0000000000000009
0
LINE
330
1
100
AcDbEntity
8
Cut
6
CONTINUOUS
62
5
370
0
100
AcDbLine
10
912.7582569139356110
20
421.0000000000000568
30
-0.0000000000000009
11
911.7582569139357247
21
422.0000000000000568
31
-0.0000000000000009
0
LINE
330
1
100
AcDbEntity
8
Cut
6
CONTINUOUS
62
5
370
0
100
AcDbLine
10
911.7582569139357247
20
422.0000000000000568
30
-0.0000000000000009
11
911.7582569139356110
21
428.0000000000000568
31
-0.0000000000000017
0
CIRCLE
8
Cut
6
CONTINUOUS
62
5
370
0
100
AcDbEntity
100
AcDbCircle
10
938.5082192954276934
20
416.9999959525466124
30
0.0000000000000000
40
10.9999959526107958
0
LINE
330
1
100
AcDbEntity
8
Cut
6
CONTINUOUS
62
5
370
0
100
AcDbLine
10
911.8060889578159731
20
186.1182394787299756
30
-0.0000000000000017
11
912.8060889578159731
21
187.1182394787299756
31
-0.0000000000000017
0
LINE
330
1
100
AcDbEntity
8
Cut
6
CONTINUOUS
62
5
370
0
100
AcDbLine
10
912.8060889578159731
20
187.1182394787299756
30
-0.0000000000000017
11
918.3060889578151773
21
187.1182394787299756
31
-0.0000000000000017
0
LINE
330
1
100
AcDbEntity
8
Cut
6
CONTINUOUS
62
5
370
0
100
AcDbLine
10
918.3060889578151773
20
187.1182394787299756
30
-0.0000000000000017
11
918.3060889578151773
21
190.1182394787299756
31
-0.0000000000000017
0
LINE
330
1
100
AcDbEntity
8
Cut
6
CONTINUOUS
62
5
370
0
100
AcDbLine
10
918.3060889578151773
20
190.1182394787299756
30
-0.0000000000000017
11
958.8060889578151773
21
190.1182394787301178
31
-0.0000000000000017
0
LINE
330
1
100
AcDbEntity
8
Cut
6
CONTINUOUS
62
5
370
0
100
AcDbLine
10
958.8060889578151773
20
190.1182394787301178
30
-0.0000000000000017
11
958.8060889578151773
21
187.1182394787300893
31
-0.0000000000000017
0
LINE
330
1
100
AcDbEntity
8
Cut
6
CONTINUOUS
62
5
370
0
100
AcDbLine
10
958.8060889578151773
20
187.1182394787300893
30
-0.0000000000000017
11
964.3060889578159731
21
187.1182394787301178
31
-0.0000000000000017
0
LINE
330
1
100
AcDbEntity
8
Cut
6
CONTINUOUS
62
5
370
0
100
AcDbLine
10
964.3060889578159731
20
187.1182394787301178
30
-0.0000000000000017
11
965.3060889578159731
21
186.1182394787301178
31
-0.0000000000000017
0
LINE
330
1
100
AcDbEntity
8
Cut
6
CONTINUOUS
62
5
370
0
100
AcDbLine
10
965.3060889578159731
20
186.1182394787301178
30
-0.0000000000000017
11
965.3060889578159731
21
180.1182394787301178
31
-0.0000000000000009
0
LINE
330
1
100
AcDbEntity
8
Cut
6
CONTINUOUS
62
5
370
0
100
AcDbLine
10
965.3060889578159731
20
180.1182394787301178
30
-0.0000000000000009
11
964.3060889578159731
21
179.1182394787301178
31
-0.0000000000000009
0
LINE
330
1
100
AcDbEntity
8
Cut
6
CONTINUOUS
62
5
370
0
100
AcDbLine
10
964.3060889578159731
20
179.1182394787301178
30
-0.0000000000000009
11
958.8060889578151773
21
179.1182394787300893
31
-0.0000000000000009
0
LINE
330
1
100
AcDbEntity
8
Cut
6
CONTINUOUS
62
5
370
0
100
AcDbLine
10
958.8060889578151773
20
179.1182394787300893
30
-0.0000000000000009
11
958.8060889578152910
21
171.1182394787301178
31
-0.0000000000000009
0
LINE
330
1
100
AcDbEntity
8
Cut
6
CONTINUOUS
62
5
370
0
100
AcDbLine
10
958.8060889578152910
20
171.1182394787301178
30
-0.0000000000000009
11
964.3060889578160868
21
171.1182394787301178
31
-0.0000000000000009
0
LINE
330
1
100
AcDbEntity
8
Cut
6
CONTINUOUS
62
5
370
0
100
AcDbLine
10
964.3060889578160868
20
171.1182394787301178
30
-0.0000000000000009
11
965.3060889578160868
21
170.1182394787301178
31
-0.0000000000000009
0
LINE
330
1
100
AcDbEntity
8
Cut
6
CONTINUOUS
62
5
370
0
100
AcDbLine
10
965.3060889578160868
20
170.1182394787301178
30
-0.0000000000000009
11
965.3060889578160868
21
164.1182394787301178
31
0.0000000000000000
0
LINE
330
1
100
AcDbEntity
8
Cut
6
CONTINUOUS
62
5
370
0
100
AcDbLine
10
965.3060889578160868
20
164.1182394787301178
30
0.0000000000000000
11
964.3060889578160868
21
163.1182394787301178
31
0.0000000000000000
0
LINE
330
1
100
AcDbEntity
8
Cut
6
CONTINUOUS
62
5
370
0
100
AcDbLine
10
964.3060889578160868
20
163.1182394787301178
30
0.0000000000000000
11
958.8060889578152910
21
163.1182394787301178
31
0.0000000000000000
0
LINE
330
1
100
AcDbEntity
8
Cut
6
CONTINUOUS
62
5
370
0
100
AcDbLine
10
958.8060889578152910
20
163.1182394787301178
30
0.0000000000000000
11
958.8060889578152910
21
160.1182394787301178
31
0.0000000000000000
0
LINE
330
1
100
AcDbEntity
8
Cut
6
CONTINUOUS
62
5
370
0
100
AcDbLine
10
958.8060889578152910
20
160.1182394787301178
30
0.0000000000000000
11
918.3060889578152910
21
160.1182394787299756
31
0.0000000000000000
0
LINE
330
1
100
AcDbEntity
8
Cut
6
CONTINUOUS
62
5
370
0
100
AcDbLine
10
918.3060889578152910
20
160.1182394787299756
30
0.0000000000000000
11
918.3060889578152910
21
163.1182394787299756
31
0.0000000000000000
0
LINE
330
1
100
AcDbEntity
8
Cut
6
CONTINUOUS
62
5
370
0
100
AcDbLine
10
918.3060889578152910
20
163.1182394787299756
30
0.0000000000000000
11
912.8060889578159731
21
163.1182394787299756
31
0.0000000000000000
0
LINE
330
1
100
AcDbEntity
8
Cut
6
CONTINUOUS
62
5
370
0
100
AcDbLine
10
912.8060889578159731
20
163.1182394787299472
30
0.0000000000000000
11
911.8060889578159731
21
164.1182394787299472
31
0.0000000000000000
0
LINE
330
1
100
AcDbEntity
8
Cut
6
CONTINUOUS
62
5
370
0
100
AcDbLine
10
911.8060889578159731
20
164.1182394787299472
30
0.0000000000000000
11
911.8060889578159731
21
170.1182394787299472
31
-0.0000000000000009
0
LINE
330
1
100
AcDbEntity
8
Cut
6
CONTINUOUS
62
5
370
0
100
AcDbLine
10
911.8060889578159731
20
170.1182394787299472
30
-0.0000000000000009
11
912.8060889578159731
21
171.1182394787299472
31
-0.0000000000000009
0
LINE
330
1
100
AcDbEntity
8
Cut
6
CONTINUOUS
62
5
370
0
100
AcDbLine
10
912.8060889578159731
20
171.1182394787299472
30
-0.0000000000000009
11
918.3060889578152910
21
171.1182394787299756
31
-0.0000000000000009
0
LINE
330
1
100
AcDbEntity
8
Cut
6
CONTINUOUS
62
5
370
0
100
AcDbLine
10
918.3060889578152910
20
171.1182394787299756
30
-0.0000000000000009
11
918.3060889578151773
21
179.1182394787299756
31
-0.0000000000000009
0
LINE
330
1
100
AcDbEntity
8
Cut
6
CONTINUOUS
62
5
370
0
100
AcDbLine
10
918.3060889578151773
20
179.1182394787299756
30
-0.0000000000000009
11
912.8060889578159731
21
179.1182394787299472
31
-0.0000000000000009
0
LINE
330
1
100
AcDbEntity
8
Cut
6
CONTINUOUS
62
5
370
0
100
AcDbLine
10
912.8060889578159731
20
179.1182394787299472
30
-0.0000000000000009
11
911.8060889578159731
21
180.1182394787299472
31
-0.0000000000000009
0
LINE
330
1
100
AcDbEntity
8
Cut
6
CONTINUOUS
62
5
370
0
100
AcDbLine
10
911.8060889578159731
20
180.1182394787299472
30
-0.0000000000000009
11
911.8060889578159731
21
186.1182394787299756
31
-0.0000000000000017
0
LINE
330
1
100
AcDbEntity
8
Cut
6
CONTINUOUS
62
5
370
0
100
AcDbLine
10
945.9461724034424606
20
175.1182394787300609
30
-0.0000000000000009
11
942.2511306806289895
21
168.7182394787300552
31
-0.0000000000000009
0
LINE
330
1
100
AcDbEntity
8
Cut
6
CONTINUOUS
62
5
370
0
100
AcDbLine
10
942.2511306806289895
20
168.7182394787300552
30
-0.0000000000000009
11
934.8610472350015925
21
168.7182394787300268
31
-0.0000000000000009
0
LINE
330
1
100
AcDbEntity
8
Cut
6
CONTINUOUS
62
5
370
0
100
AcDbLine
10
934.8610472350015925
20
168.7182394787300268
30
-0.0000000000000009
11
931.1660055121880077
21
175.1182394787300325
31
-0.0000000000000009
0
LINE
330
1
100
AcDbEntity
8
Cut
6
CONTINUOUS
62
5
370
0
100
AcDbLine
10
931.1660055121880077
20
175.1182394787300041
30
-0.0000000000000009
11
934.8610472350015925
21
181.5182394787300382
31
-0.0000000000000017
0
LINE
330
1
100
AcDbEntity
8
Cut
6
CONTINUOUS
62
5
370
0
100
AcDbLine
10
934.8610472350015925
20
181.5182394787300382
30
-0.0000000000000017
11
942.2511306806288758
21
181.5182394787300666
31
-0.0000000000000017
0
LINE
330
1
100
AcDbEntity
8
Cut
6
CONTINUOUS
62
5
370
0
100
AcDbLine
10
942.2511306806288758
20
181.5182394787300666
30
-0.0000000000000017
11
945.9461724034424606
21
175.1182394787300609
31
-0.0000000000000009
0
LINE
330
1
100
AcDbEntity
8
Cut
6
CONTINUOUS
62
5
370
0
100
AcDbLine
10
887.8060889578158594
20
197.9763655735554835
30
0.0000000000000000
11
888.8060889578158594
21
198.9763655735555119
31
0.0000000000000000
0
LINE
330
1
100
AcDbEntity
8
Cut
6
CONTINUOUS
62
5
370
0
100
AcDbLine
10
888.8060889578158594
20
198.9763655735555119
30
0.0000000000000000
11
894.8060889578158594
21
198.9763655735555119
31
-0.0000000000000009
0
LINE
330
1
100
AcDbEntity
8
Cut
6
CONTINUOUS
62
5
370
0
100
AcDbLine
10
894.8060889578158594
20
198.9763655735555119
30
-0.0000000000000009
11
895.8060889578158594
21
197.9763655735555119
31
-0.0000000000000009
0
LINE
330
1
100
AcDbEntity
8
Cut
6
CONTINUOUS
62
5
370
0
100
AcDbLine
10
895.8060889578158594
20
197.9763655735555119
30
-0.0000000000000009
11
895.8060889578158594
21
192.4763655735555403
31
-0.0000000000000009
0
LINE
330
1
100
AcDbEntity
8
Cut
6
CONTINUOUS
62
5
370
0
100
AcDbLine
10
895.8060889578158594
20
192.4763655735555119
30
-0.0000000000000009
11
899.8060889578158594
21
192.4763655735555403
31
-0.0000000000000009
0
LINE
330
1
100
AcDbEntity
8
Cut
6
CONTINUOUS
62
5
370
0
100
AcDbLine
10
899.8060889578158594
20
192.4763655735555403
30
-0.0000000000000009
11
899.8060889578158594
21
197.9763655735555403
31
-0.0000000000000009
0
LINE
330
1
100
AcDbEntity
8
Cut
6
CONTINUOUS
62
5
370
0
100
AcDbLine
10
899.8060889578158594
20
197.9763655735555403
30
-0.0000000000000009
11
900.8060889578158594
21
198.9763655735555687
31
-0.0000000000000009
0
LINE
330
1
100
AcDbEntity
8
Cut
6
CONTINUOUS
62
5
370
0
100
AcDbLine
10
900.8060889578158594
20
198.9763655735555687
30
-0.0000000000000009
11
906.8060889578158594
21
198.9763655735555687
31
-0.0000000000000017
0
LINE
330
1
100
AcDbEntity
8
Cut
6
CONTINUOUS
62
5
370
0
100
AcDbLine
10
906.8060889578158594
20
198.9763655735555687
30
-0.0000000000000017
11
907.8060889578158594
21
197.9763655735555687
31
-0.0000000000000017
0
LINE
330
1
100
AcDbEntity
8
Cut
6
CONTINUOUS
62
5
370
0
100
AcDbLine
10
907.8060889578158594
20
197.9763655735555687
30
-0.0000000000000017
11
907.8060889578158594
21
192.4763655735555972
31
-0.0000000000000017
0
LINE
330
1
100
AcDbEntity
8
Cut
6
CONTINUOUS
62
5
370
0
100
AcDbLine
10
907.8060889578158594
20
192.4763655735555687
30
-0.0000000000000017
11
910.8060889578158594
21
192.4763655735555972
31
-0.0000000000000017
0
LINE
330
1
100
AcDbEntity
8
Cut
6
CONTINUOUS
62
5
370
0
100
AcDbLine
10
910.8060889578158594
20
192.4763655735555972
30
-0.0000000000000017
11
910.8060889578160868
21
151.9763655735555972
31
-0.0000000000000017
0
LINE
330
1
100
AcDbEntity
8
Cut
6
CONTINUOUS
62
5
370
0
100
AcDbLine
10
910.8060889578160868
20
151.9763655735555972
30
-0.0000000000000017
11
907.8060889578160868
21
151.9763655735555972
31
-0.0000000000000017
0
LINE
330
1
100
AcDbEntity
8
Cut
6
CONTINUOUS
62
5
370
0
100
AcDbLine
10
907.8060889578160868
20
151.9763655735555972
30
-0.0000000000000017
11
907.8060889578160868
21
146.4763655735555972
31
-0.0000000000000017
0
LINE
330
1
100
AcDbEntity
8
Cut
6
CONTINUOUS
62
5
370
0
100
AcDbLine
10
907.8060889578160868
20
146.4763655735555972
30
-0.0000000000000017
11
906.8060889578160868
21
145.4763655735555972
31
-0.0000000000000017
0
LINE
330
1
100
AcDbEntity
8
Cut
6
CONTINUOUS
62
5
370
0
100
AcDbLine
10
906.8060889578160868
20
145.4763655735555972
30
-0.0000000000000017
11
900.8060889578160868
21
145.4763655735555687
31
-0.0000000000000009
0
LINE
330
1
100
AcDbEntity
8
Cut
6
CONTINUOUS
62
5
370
0
100
AcDbLine
10
900.8060889578160868
20
145.4763655735555687
30
-0.0000000000000009
11
899.8060889578160868
21
146.4763655735555403
31
-0.0000000000000009
0
LINE
330
1
100
AcDbEntity
8
Cut
6
CONTINUOUS
62
5
370
0
100
AcDbLine
10
899.8060889578160868
20
146.4763655735555403
30
-0.0000000000000009
11
899.8060889578160868
21
151.9763655735555403
31
-0.0000000000000009
0
LINE
330
1
100
AcDbEntity
8
Cut
6
CONTINUOUS
62
5
370
0
100
AcDbLine
10
899.8060889578160868
20
151.9763655735555403
30
-0.0000000000000009
11
895.8060889578160868
21
151.9763655735555403
31
-0.0000000000000009
0
LINE
330
1
100
AcDbEntity
8
Cut
6
CONTINUOUS
62
5
370
0
100
AcDbLine
10
895.8060889578160868
20
151.9763655735555403
30
-0.0000000000000009
11
895.8060889578160868
21
146.4763655735555403
31
-0.0000000000000009
0
LINE
330
1
100
AcDbEntity
8
Cut
6
CONTINUOUS
62
5
370
0
100
AcDbLine
10
895.8060889578160868
20
146.4763655735555403
30
-0.0000000000000009
11
894.8060889578160868
21
145.4763655735555403
31
-0.0000000000000009
0
LINE
330
1
100
AcDbEntity
8
Cut
6
CONTINUOUS
62
5
370
0
100
AcDbLine
10
894.8060889578160868
20
145.4763655735555403
30
-0.0000000000000009
11
888.8060889578160868
21
145.4763655735555119
31
0.0000000000000000
0
LINE
330
1
100
AcDbEntity
8
Cut
6
CONTINUOUS
62
5
370
0
100
AcDbLine
10
888.8060889578160868
20
145.4763655735555119
30
0.0000000000000000
11
887.8060889578160868
21
146.4763655735554835
31
0.0000000000000000
0
LINE
330
1
100
AcDbEntity
8
Cut
6
CONTINUOUS
62
5
370
0
100
AcDbLine
10
887.8060889578160868
20
146.4763655735554835
30
0.0000000000000000
11
887.8060889578160868
21
151.9763655735554835
31
0.0000000000000000
0
LINE
330
1
100
AcDbEntity
8
Cut
6
CONTINUOUS
62
5
370
0
100
AcDbLine
10
887.8060889578160868
20
151.9763655735554835
30
0.0000000000000000
11
884.8060889578160868
21
151.9763655735554835
31
0.0000000000000000
0
LINE
330
1
100
AcDbEntity
8
Cut
6
CONTINUOUS
62
5
370
0
100
AcDbLine
10
884.8060889578160868
20
151.9763655735554835
30
0.0000000000000000
11
884.8060889578158594
21
192.4763655735554835
31
0.0000000000000000
0
LINE
330
1
100
AcDbEntity
8
Cut
6
CONTINUOUS
62
5
370
0
100
AcDbLine
10
884.8060889578158594
20
192.4763655735554835
30
0.0000000000000000
11
887.8060889578158594
21
192.4763655735554835
31
0.0000000000000000
0
LINE
330
1
100
AcDbEntity
8
Cut
6
CONTINUOUS
62
5
370
0
100
AcDbLine
10
887.8060889578158594
20
192.4763655735554835
30
0.0000000000000000
11
887.8060889578158594
21
197.9763655735554835
31
0.0000000000000000
0
CIRCLE
8
Cut
6
CONTINUOUS
62
5
370
0
100
AcDbEntity
100
AcDbCircle
10
902.8059313161488717
20
185.7262078182023970
30
-0.0000000000000017
40
2.9998423624809591
0
CIRCLE
8
Cut
6
CONTINUOUS
62
5
370
0
100
AcDbEntity
100
AcDbCircle
10
902.8059313161489854
20
158.7262078182023117
30
-0.0000000000000017
40
2.9998423624808481
0
CIRCLE
8
Cut
6
CONTINUOUS
62
5
370
0
100
AcDbEntity
100
AcDbCircle
10
902.8059313161488717
20
177.7262078182023970
30
-0.0000000000000009
40
2.9998423624808481
0
CIRCLE
8
Cut
6
CONTINUOUS
62
5
370
0
100
AcDbEntity
100
AcDbCircle
10
902.8059313161489854
20
166.7262078182023401
30
-0.0000000000000009
40
2.9998423624809591
0
CIRCLE
8
Cut
6
CONTINUOUS
62
5
370
0
100
AcDbEntity
100
AcDbCircle
10
892.8059313161488717
20
185.7262078182023117
30
-0.0000000000000017
40
2.9998423624808481
0
CIRCLE
8
Cut
6
CONTINUOUS
62
5
370
0
100
AcDbEntity
100
AcDbCircle
10
892.8059313161488717
20
177.7262078182023117
30
-0.0000000000000009
40
2.9998423624808481
0
CIRCLE
8
Cut
6
CONTINUOUS
62
5
370
0
100
AcDbEntity
100
AcDbCircle
10
892.8059313161489854
20
158.7262078182023117
30
-0.0000000000000017
40
2.9998423624808481
0
CIRCLE
8
Cut
6
CONTINUOUS
62
5
370
0
100
AcDbEntity
100
AcDbCircle
10
892.8059313161489854
20
166.7262078182023401
30
-0.0000000000000017
40
2.9998423624809591
0
LINE
330
1
100
AcDbEntity
8
Cut
6
CONTINUOUS
62
5
370
0
100
AcDbLine
10
871.5000000000000000
20
222.8642632511239867
30
0.0000000000000000
11
871.4999999999998863
21
263.3642632511239867
31
0.0000000000000000
0
LINE
330
1
100
AcDbEntity
8
Cut
6
CONTINUOUS
62
5
370
0
100
AcDbLine
10
871.4999999999998863
20
263.3642632511239867
30
0.0000000000000000
11
897.4999999999998863
21
263.3642632511241004
31
-0.0000000000000017
0
LINE
330
1
100
AcDbEntity
8
Cut
6
CONTINUOUS
62
5
370
0
100
AcDbLine
10
897.4999999999998863
20
263.3642632511241004
30
-0.0000000000000017
11
897.5000000000001137
21
222.8642632511241004
31
-0.0000000000000017
0
LINE
330
1
100
AcDbEntity
8
Cut
6
CONTINUOUS
62
5
370
0
100
AcDbLine
10
897.5000000000001137
20
222.8642632511241004
30
-0.0000000000000017
11
871.5000000000000000
21
222.8642632511239867
31
0.0000000000000000
0
CIRCLE
8
Cut
6
CONTINUOUS
62
5
370
0
100
AcDbEntity
100
AcDbCircle
10
889.4998423583327849
20
256.6141054957709002
30
-0.0000000000000017
40
2.9998423624809591
0
CIRCLE
8
Cut
6
CONTINUOUS
62
5
370
0
100
AcDbEntity
100
AcDbCircle
10
889.4998423583327849
20
248.6141054957709002
30
-0.0000000000000009
40
2.9998423624808481
0
CIRCLE
8
Cut
6
CONTINUOUS
62
5
370
0
100
AcDbEntity
100
AcDbCircle
10
889.4998423583328986
20
237.6141054957708434
30
-0.0000000000000009
40
2.9998423624809591
0
CIRCLE
8
Cut
6
CONTINUOUS
62
5
370
0
100
AcDbEntity
100
AcDbCircle
10
879.4998423583327849
20
256.6141054957707865
30
-0.0000000000000017
40
2.9998423624808481
0
CIRCLE
8
Cut
6
CONTINUOUS
62
5
370
0
100
AcDbEntity
100
AcDbCircle
10
879.4998423583327849
20
248.6141054957708150
30
-0.0000000000000009
40
2.9998423624808481
0
CIRCLE
8
Cut
6
CONTINUOUS
62
5
370
0
100
AcDbEntity
100
AcDbCircle
10
879.4998423583328986
20
237.6141054957708434
30
-0.0000000000000017
40
2.9998423624809591
0
CIRCLE
8
Cut
6
CONTINUOUS
62
5
370
0
100
AcDbEntity
100
AcDbCircle
10
889.4998423583328986
20
229.6141054957708150
30
-0.0000000000000017
40
2.9998423624808481
0
CIRCLE
8
Cut
6
CONTINUOUS
62
5
370
0
100
AcDbEntity
100
AcDbCircle
10
879.4998423583328986
20
229.6141054957708150
30
-0.0000000000000017
40
2.9998423624808481
0
LINE
330
1
100
AcDbEntity
8
Cut
6
CONTINUOUS
62
5
370
0
100
AcDbLine
10
877.3060889578165416
20
105.9200131944263461
30
-0.0000000000002359
11
877.3060889578164279
21
122.1700131944263035
31
-0.0000000000001830
0
LINE
330
1
100
AcDbEntity
8
Cut
6
CONTINUOUS
62
5
370
0
100
AcDbLine
10
877.3060889578164279
20
122.1700131944263035
30
-0.0000000000001830
11
870.5560889578164279
21
128.9200131944263035
31
-0.0000000000001613
0
LINE
330
1
100
AcDbEntity
8
Cut
6
CONTINUOUS
62
5
370
0
100
AcDbLine
10
870.5560889578164279
20
128.9200131944263035
30
-0.0000000000001613
11
870.5560889578163142
21
142.9200131944263035
31
-0.0000000000001162
0
LINE
330
1
100
AcDbEntity
8
Cut
6
CONTINUOUS
62
5
370
0
100
AcDbLine
10
870.5560889578163142
20
142.9200131944263035
30
-0.0000000000001162
11
877.3060889578162005
21
147.9200131944263603
31
-0.0000000000000997
0
LINE
330
1
100
AcDbEntity
8
Cut
6
CONTINUOUS
62
5
370
0
100
AcDbLine
10
877.3060889578162005
20
147.9200131944263603
30
-0.0000000000000997
11
877.3060889578159731
21
183.9200131944263603
31
0.0000000000000165
0
LINE
330
1
100
AcDbEntity
8
Cut
6
CONTINUOUS
62
5
370
0
100
AcDbLine
10
877.3060889578159731
20
183.9200131944263603
30
0.0000000000000165
11
883.8060889578159731
21
183.9200131944264172
31
0.0000000000000165
0
LINE
330
1
100
AcDbEntity
8
Cut
6
CONTINUOUS
62
5
370
0
100
AcDbLine
10
883.8060889578159731
20
183.9200131944264172
30
0.0000000000000165
11
883.8060889578162005
21
147.9200131944264172
31
-0.0000000000000997
0
LINE
330
1
100
AcDbEntity
8
Cut
6
CONTINUOUS
62
5
370
0
100
AcDbLine
10
883.8060889578162005
20
147.9200131944264172
30
-0.0000000000000997
11
890.5560889578162005
21
142.9200131944264456
31
-0.0000000000001162
0
LINE
330
1
100
AcDbEntity
8
Cut
6
CONTINUOUS
62
5
370
0
100
AcDbLine
10
890.5560889578162005
20
142.9200131944264456
30
-0.0000000000001162
11
890.5560889578163142
21
138.9200131944264456
31
-0.0000000000001292
0
LINE
330
1
100
AcDbEntity
8
Cut
6
CONTINUOUS
62
5
370
0
100
AcDbLine
10
890.5560889578163142
20
138.9200131944264456
30
-0.0000000000001292
11
883.8060889578163142
21
138.9200131944263887
31
-0.0000000000001292
0
LINE
330
1
100
AcDbEntity
8
Cut
6
CONTINUOUS
62
5
370
0
100
AcDbLine
10
883.8060889578163142
20
138.9200131944263887
30
-0.0000000000001292
11
883.8060889578163142
21
132.9200131944264172
31
-0.0000000000001483
0
LINE
330
1
100
AcDbEntity
8
Cut
6
CONTINUOUS
62
5
370
0
100
AcDbLine
10
883.8060889578163142
20
132.9200131944264172
30
-0.0000000000001483
11
890.5560889578163142
21
132.9200131944264740
31
-0.0000000000001483
0
LINE
330
1
100
AcDbEntity
8
Cut
6
CONTINUOUS
62
5
370
0
100
AcDbLine
10
890.5560889578163142
20
132.9200131944264740
30
-0.0000000000001483
11
890.5560889578163142
21
128.9200131944264456
31
-0.0000000000001613
0
LINE
330
1
100
AcDbEntity
8
Cut
6
CONTINUOUS
62
5
370
0
100
AcDbLine
10
890.5560889578163142
20
128.9200131944264456
30
-0.0000000000001613
11
883.8060889578164279
21
122.1700131944264172
31
-0.0000000000001830
0
LINE
330
1
100
AcDbEntity
8
Cut
6
CONTINUOUS
62
5
370
0
100
AcDbLine
10
883.8060889578164279
20
122.1700131944264172
30
-0.0000000000001830
11
883.8060889578165416
21
105.9200131944264029
31
-0.0000000000002359
0
LINE
330
1
100
AcDbEntity
8
Cut
6
CONTINUOUS
62
5
370
0
100
AcDbLine
10
883.8060889578165416
20
105.9200131944264029
30
-0.0000000000002359
11
877.3060889578165416
21
105.9200131944263461
31
-0.0000000000002359
0
SPLINE
8
Cut
6
CONTINUOUS
62
5
370
0
100
AcDbEntity
100
AcDbSpline
70
1
71
3
72
16
73
12
74
0
40
0.0000000000000000
40
0.0000000000000000
40
0.0000000000000000
40
0.0000000000000000
40
0.1148601586564258
40
0.2297203173128518
40
0.3445804759692784
40
0.4594406346257039
40
0.5743007932821298
40
0.6891609519385555
40
0.8040211105949812
40
0.9188812692514067
40
0.9999999999999999
40
0.9999999999999999
40
0.9999999999999999
40
0.9999999999999999
10
880.5560889578165416
20
109.9700131944263859
30
-0.0000000000002220
10
880.9263545729415910
20
109.9678914755621264
30
-0.0000000000002220
10
881.6750023983440769
20
109.6894997236439622
30
-0.0000000000002238
10
882.2331209130181833
20
108.6324122752999273
30
-0.0000000000002255
10
881.9551879038272091
20
107.4706896650001795
30
-0.0000000000002325
10
880.9780443909193082
20
106.7827364770201939
30
-0.0000000000002299
10
879.7901066719716709
20
106.9127095879746889
30
-0.0000000000002316
10
878.9852946488115322
20
107.7953894780009279
30
-0.0000000000002299
10
878.9629661913661494
20
108.9905595871723278
30
-0.0000000000002272
10
879.6677215610336589
20
109.8099556979915832
30
-0.0000000000002212
10
880.2945929169775354
20
109.9715116351676016
30
-0.0000000000002220
10
880.5560889578165416
20
109.9700131944263859
30
-0.0000000000002220
41
1.0000000000000000
41
1.0000000000000000
41
1.0000000000000000
41
1.0000000000000000
41
1.0000000000000000
41
1.0000000000000000
41
1.0000000000000000
41
1.0000000000000000
41
1.0000000000000000
41
1.0000000000000000
41
1.0000000000000000
41
1.0000000000000000
0
SPLINE
8
Cut
6
CONTINUOUS
62
5
370
0
100
AcDbEntity
100
AcDbSpline
70
1
71
3
72
16
73
12
74
0
40
0.0000000000000000
40
0.0000000000000000
40
0.0000000000000000
40
0.0000000000000000
40
0.1148601586564258
40
0.2297203173128517
40
0.3445804759692775
40
0.4594406346257032
40
0.5743007932821291
40
0.6891609519385550
40
0.8040211105949808
40
0.9188812692514067
40
0.9999999999999999
40
0.9999999999999999
40
0.9999999999999999
40
0.9999999999999999
10
880.5560889578159731
20
179.8700131944263774
30
0.0000000000000026
10
880.1858233426909237
20
179.8721349132906369
30
0.0000000000000026
10
879.4371755172885514
20
180.1505266652087869
30
0.0000000000000061
10
878.8790570026142177
20
181.2076141135528360
30
0.0000000000000078
10
879.1569900118053056
20
182.3693367238525695
30
0.0000000000000104
10
880.1341335247132065
20
183.0572899118325267
30
0.0000000000000139
10
881.3220712436609574
20
182.9273168008780601
30
0.0000000000000147
10
882.1268832668209825
20
182.0446369108518070
30
0.0000000000000095
10
882.1492117242663653
20
180.8494668016804212
30
0.0000000000000061
10
881.4444563545987421
20
180.0300706908611517
30
0.0000000000000035
10
880.8175849986549792
20
179.8685147536851616
30
0.0000000000000026
10
880.5560889578159731
20
179.8700131944263774
30
0.0000000000000026
41
1.0000000000000000
41
1.0000000000000000
41
1.0000000000000000
41
1.0000000000000000
41
1.0000000000000000
41
1.0000000000000000
41
1.0000000000000000
41
1.0000000000000000
41
1.0000000000000000
41
1.0000000000000000
41
1.0000000000000000
41
1.0000000000000000
0
LINE
330
1
100
AcDbEntity
8
Cut
6
CONTINUOUS
62
5
370
0
100
AcDbLine
10
958.2500021126304546
20
295.3682401896552960
30
0.0000000000000000
11
958.2500021126304546
21
301.8682401896552960
31
0.0000000000000000
0
LINE
330
1
100
AcDbEntity
8
Cut
6
CONTINUOUS
62
5
370
0
100
AcDbLine
10
958.2500021126304546
20
301.8682401896552960
30
0.0000000000000000
11
942.9298944080571800
21
301.8682401896551823
31
0.0000000000000000
0
ARC
8
Cut
6
CONTINUOUS
62
5
370
0
100
AcDbEntity
100
AcDbCircle
10
955.0000010876665328
20
298.6182405663966506
30
0.0000000000000000
40
12.4999989123332345
100
AcDbArc
50
195.0700650338582705
51
164.9299383010749693
0
LINE
330
1
100
AcDbEntity
8
Cut
6
CONTINUOUS
62
5
370
0
100
AcDbLine
10
942.9298944080571800
20
295.3682401896552392
30
0.0000000000000000
11
958.2500021126304546
21
295.3682401896552960
31
0.0000000000000000
0
ENDSEC
0
EOF
