0
SECTION
2
HEADER
9
$INSUNITS
70
4
9
$ACADVER
1
AC1014
9
$HANDSEED
5
FFFF
0
ENDSEC
0
SECTION
2
TABLES
0
TABLE
2
VPORT
5
8
100
AcDbSymbolTable
0
ENDTAB
0
TABLE
2
LTYPE
5
5
100
AcDbSymbolTable
0
LTYPE
5
14
100
AcDbSymbolTableRecord
100
AcDbLinetypeTableRecord
2
BYBLOCK
70
0
0
LTYPE
5
15
100
AcDbSymbolTableRecord
100
AcDbLinetypeTableRecord
2
BYLAYER
70
0
0
ENDTAB
0
TABLE
2
LAYER
5
2
100
AcDbSymbolTable
70
2
0
LAYER
5
50
100
AcDbSymbolTableRecord
100
AcDbLayerTableRecord
2
0
70
0
6
CONTINUOUS
0
ENDTAB
0
TABLE
2
STYLE
5
3
100
AcDbSymbolTable
70
1
0
STYLE
5
11
100
AcDbSymbolTableRecord
100
AcDbTextStyleTableRecord
2
STANDARD
70
0
0
ENDTAB
0
TABLE
2
VIEW
5
6
100
AcDbSymbolTable
70
0
0
ENDTAB
0
TABLE
2
UCS
5
7
100
AcDbSymbolTable
70
0
0
ENDTAB
0
TABLE
2
APPID
5
9
100
AcDbSymbolTable
70
2
0
APPID
5
12
100
AcDbSymbolTableRecord
100
AcDbRegAppTableRecord
2
ACAD
70
0
0
ENDTAB
0
TABLE
2
DIMSTYLE
5
A
100
AcDbSymbolTable
70
1
0
ENDTAB
0
TABLE
2
BLOCK_RECORD
5
1
100
AcDbSymbolTable
70
1
0
BLOCK_RECORD
5
1F
100
AcDbSymbolTableRecord
100
AcDbBlockTableRecord
2
*MODEL_SPACE
0
BLOCK_RECORD
5
1B
100
AcDbSymbolTableRecord
100
AcDbBlockTableRecord
2
*PAPER_SPACE
0
ENDTAB
0
ENDSEC
0
SECTION
2
BLOCKS
0
BLOCK
5
20
100
AcDbEntity
100
AcDbBlockBegin
2
*MODEL_SPACE
0
ENDBLK
5
21
100
AcDbEntity
100
AcDbBlockEnd
0
BLOCK
5
1C
100
AcDbEntity
100
AcDbBlockBegin
2
*PAPER_SPACE
0
ENDBLK
5
1D
100
AcDbEntity
100
AcDbBlockEnd
0
ENDSEC
0
SECTION
2
ENTITIES
0
CIRCLE
5
100
100
AcDbEntity
8
0
100
AcDbCircle
10
80.682938680463906
20
58.220071937272458
30
0
40
4.1500000000000004
210
0
220
-0
230
1
0
CIRCLE
5
101
100
AcDbEntity
8
0
100
AcDbCircle
10
12.902902324736942
20
-125.0325007184483
30
0
40
3.2499999999999996
210
0
220
-0
230
1
0
CIRCLE
5
102
100
AcDbEntity
8
0
100
AcDbCircle
10
-43.957008921780599
20
-113.07105153852278
30
0
40
4.1500000000000004
210
0
220
-0
230
1
0
CIRCLE
5
103
100
AcDbEntity
8
0
100
AcDbCircle
10
-60.429521056747426
20
-8.6632565607101775
30
0
40
3.2500000000000018
210
0
220
-0
230
1
0
CIRCLE
5
104
100
AcDbEntity
8
0
100
AcDbCircle
10
-57.356651682786442
20
48.317284391486098
30
0
40
3.2500000000000018
210
0
220
-0
230
1
0
CIRCLE
5
105
100
AcDbEntity
8
0
100
AcDbCircle
10
-51.727324170044106
20
-20.735421849617207
30
0
40
3.2500000000000018
210
0
220
-0
230
1
0
CIRCLE
5
106
100
AcDbEntity
8
0
100
AcDbCircle
10
78.362598291775626
20
-83.012107678694605
30
0
40
3.2500000000000018
210
0
220
-0
230
1
0
ARC
5
107
100
AcDbEntity
8
0
100
AcDbCircle
10
-62.740556133227116
20
26.416234225173515
30
0
40
2.8215748905521836
210
0
220
0
230
1
100
AcDbArc
50
163.10831661454822
51
282.08660847086361
0
SPLINE
5
108
100
AcDbEntity
8
0
100
AcDbSpline
70
4
71
5
72
21
73
15
74
0
42
0.000000001
43
0.0000000001
44
0.0000000001
40
0.03017447126033589
40
0.03017447126033589
40
0.03017447126033589
40
0.03017447126033589
40
0.03017447126033589
40
0.03017447126033589
40
0.10000000000000001
40
0.20000000000000001
40
0.30000000000000004
40
0.40000000000000002
40
0.5
40
0.59999999999999998
40
0.69999999999999996
40
0.79999999999999993
40
0.89999999999999991
40
0.90451976066324924
40
0.90451976066324924
40
0.90451976066324924
40
0.90451976066324924
40
0.90451976066324924
40
0.90451976066324924
41
1
41
1
41
1
41
1
41
1
41
1
41
1
41
1
41
1
41
1
41
1
41
1
41
1
41
1
41
1
10
-65.440396347941444
20
27.236080355862601
30
0
10
-65.39726578490675
20
27.422386486384728
30
0
10
-65.289377192402014
20
27.873819857969817
30
0
10
-65.106369743217527
20
28.584524438215198
30
0
10
-64.829850345674032
20
29.544104286846874
30
0
10
-64.431112697680419
20
30.736334344627878
30
0
10
-63.947227187367154
20
31.971483215860591
30
0
10
-63.39887656147517
20
33.170195825963326
30
0
10
-62.783249827322614
20
34.330883376676368
30
0
10
-62.102855810069514
20
35.454963878467424
30
0
10
-61.503893560522428
20
36.336978716845657
30
0
10
-61.027466922081388
20
36.986522721165038
30
0
10
-60.696473024911164
20
37.416537554622252
30
0
10
-60.524485067445909
20
37.634694910628838
30
0
10
-60.517042476087191
20
37.644125722636758
30
0
0
ARC
5
109
100
AcDbEntity
8
0
100
AcDbCircle
10
-54.401837619210411
20
33.432594581713907
30
0
40
7.4251414122919099
210
0
220
0
230
1
100
AcDbArc
50
101.22796022422773
51
145.44488183445893
0
ARC
5
110
100
AcDbEntity
8
0
100
AcDbCircle
10
-57.356651682786442
20
48.317284391486098
30
0
40
7.7500000000213953
210
-0
220
0
230
1
100
AcDbArc
50
281.22808281877138
51
350.79372789748589
0
SPLINE
5
111
100
AcDbEntity
8
0
100
AcDbSpline
70
4
71
5
72
26
73
20
74
0
42
0.000000001
43
0.0000000001
44
0.0000000001
40
-1
40
-1
40
-1
40
-1
40
-1
40
-1
40
-0.93333333333333324
40
-0.86666666666666659
40
-0.79999999999999993
40
-0.73333333333333328
40
-0.66666666666666663
40
-0.59999999999999998
40
-0.53333333333333333
40
-0.46666666666666662
40
-0.39999999999999997
40
-0.33333333333333331
40
-0.26666666666666666
40
-0.20000000000000001
40
-0.13333333333333333
40
-0.066666666666666666
40
0
40
0
40
0
40
0
40
0
40
0
41
1
41
1
41
1
41
1
41
1
41
1
41
1
41
1
41
1
41
1
41
1
41
1
41
1
41
1
41
1
41
1
41
1
41
1
41
1
41
1
10
-49.706481314696482
20
47.077367724143201
30
0
10
-49.688288357632537
20
47.189610587426891
30
0
10
-49.609048057111032
20
47.426411125007149
30
0
10
-49.361722276761398
20
47.818498186946371
30
0
10
-48.812593268334901
20
48.392220864843132
30
0
10
-47.956951628129296
20
49.077022963320154
30
0
10
-47.12540407075619
20
49.618395585926976
30
0
10
-46.446557478278066
20
49.952023831322947
30
0
10
-45.825085935126559
20
50.159695141358391
30
0
10
-45.000698254017024
20
50.439108518078243
30
0
10
-44.097106427043123
20
50.761724720107388
30
0
10
-43.273487261618662
20
51.066317426780891
30
0
10
-42.687647813655147
20
51.27301655395204
30
0
10
-42.234049301987142
20
51.414122118391276
30
0
10
-41.606627132682789
20
51.612011869239225
30
0
10
-40.814726328115924
20
51.848591243709635
30
0
10
-40.10477715755993
20
52.034625923191228
30
0
10
-39.583835898519645
20
52.144136817235648
30
0
10
-39.249620344430724
20
52.199785629429634
30
0
10
-39.085820877124966
20
52.223253065938437
30
0
0
LINE
5
112
100
AcDbEntity
8
0
100
AcDbLine
10
-39.085820877124966
20
52.223253065938444
30
0
11
-25.968035360019286
21
54.102629133651945
31
0
0
ARC
5
113
100
AcDbEntity
8
0
100
AcDbCircle
10
-29.443250397082934
20
68.535684998622457
30
0
40
14.845545498741131
210
-0
220
0
230
1
100
AcDbArc
50
283.53807199087277
51
335.61870091513293
0
ARC
5
114
100
AcDbEntity
8
0
100
AcDbCircle
10
-12.695901680120606
20
60.945340717723646
30
0
40
3.5415971653628633
210
0
220
-0
230
1
100
AcDbArc
50
82.577407276096977
51
155.61870091762196
0
LINE
5
115
100
AcDbEntity
8
0
100
AcDbLine
10
-12.238374713748129
20
64.457260357571386
30
0
11
5.1495549767240156
21
63.912419289610369
31
0
0
ARC
5
116
100
AcDbEntity
8
0
100
AcDbCircle
10
5.2501644856637117
20
57.539960701788871
30
0
40
6.3732527587401533
210
0
220
-0
230
1
100
AcDbArc
50
45.37870713470187
51
90.904520801132577
0
ARC
5
117
100
AcDbEntity
8
0
100
AcDbCircle
10
14.995009982316233
20
67.414429211752463
30
0
40
7.5000000000486953
210
0
220
0
230
1
100
AcDbArc
50
225.3784025382536
51
315.70396675847553
0
ARC
5
118
100
AcDbEntity
8
0
100
AcDbCircle
10
24.339194098180563
20
58.29708477941557
30
0
40
5.5552574194856899
210
0
220
-0
230
1
100
AcDbArc
50
82.128472246270803
51
135.70396676795562
0
LINE
5
119
100
AcDbEntity
8
0
100
AcDbLine
10
25.099999438971285
20
63.799998573958881
30
0
11
65.305066483043547
21
63.278717905553556
31
0
0
SPLINE
5
120
100
AcDbEntity
8
0
100
AcDbSpline
70
4
71
5
72
21
73
15
74
0
42
0.000000001
43
0.0000000001
44
0.0000000001
40
0
40
0
40
0
40
0
40
0
40
0
40
0.10000000000000001
40
0.20000000000000001
40
0.30000000000000004
40
0.40000000000000002
40
0.5
40
0.59999999999999998
40
0.69999999999999996
40
0.79999999999999993
40
0.89999999999999991
40
1
40
1
40
1
40
1
40
1
40
1
41
1
41
1
41
1
41
1
41
1
41
1
41
1
41
1
41
1
41
1
41
1
41
1
41
1
41
1
41
1
10
65.305066483043547
20
63.278717905553556
30
0
10
65.406147476866906
20
63.277407335222563
30
0
10
65.657677895684515
20
63.260818150577769
30
0
10
66.182693410042489
20
63.194110679770581
30
0
10
67.112732914586104
20
63.034375172889519
30
0
10
68.316170798836467
20
62.780883037656878
30
0
10
69.265221453610707
20
62.521523513145169
30
0
10
69.76868354067679
20
62.275294312935529
30
0
10
70.18813686069501
20
61.938353696684658
30
0
10
70.884755526534605
20
61.399230867214669
30
0
10
71.702822435829191
20
60.649434333867909
30
0
10
72.25070549083307
20
59.890880427165811
30
0
10
72.464088478200125
20
59.246256981614913
30
0
10
72.498924364681457
20
58.784822089395099
30
0
10
72.489426387943297
20
58.546195092404865
30
0
0
ARC
5
121
100
AcDbEntity
8
0
100
AcDbCircle
10
80.682938680463906
20
58.220071937272458
30
0
40
8.2000000000000011
210
0
220
0
230
1
100
AcDbArc
50
177.72068172755854
51
272.95943964305525
0
ARC
5
122
100
AcDbEntity
8
0
100
AcDbCircle
10
81.423664242457278
20
43.892123499263761
30
0
40
6.147082658172228
210
0
220
-0
230
1
100
AcDbArc
50
7.431407971172538
51
92.959439724576882
0
SPLINE
5
123
100
AcDbEntity
8
0
100
AcDbSpline
70
4
71
5
72
21
73
15
74
0
42
0.000000001
43
0.0000000001
44
0.0000000001
40
-1
40
-1
40
-1
40
-1
40
-1
40
-1
40
-0.89999999999999991
40
-0.79999999999999993
40
-0.69999999999999996
40
-0.59999999999999998
40
-0.5
40
-0.40000000000000002
40
-0.30000000000000004
40
-0.20000000000000001
40
-0.10000000000000001
40
0
40
0
40
0
40
0
40
0
40
0
41
1
41
1
41
1
41
1
41
1
41
1
41
1
41
1
41
1
41
1
41
1
41
1
41
1
41
1
41
1
10
87.519113933896548
20
44.687182154668889
30
0
10
87.570065005601265
20
44.50077334883315
30
0
10
87.668832691026893
20
44.127340161358489
30
0
10
87.807581075817339
20
43.565343698025146
30
0
10
87.973461243912681
20
42.812260561848767
30
0
10
88.146796020354472
20
41.864226354950588
30
0
10
88.283113895353864
20
40.908922403501798
30
0
10
88.379453985503446
20
39.945767219986202
30
0
10
88.434310091715091
20
38.974465002155853
30
0
10
88.44945434830322
20
37.995363779241998
30
0
10
88.427937664507368
20
37.009062718921079
30
0
10
88.383829139202732
20
36.214739930034206
30
0
10
88.336584775716005
20
35.616216374593847
30
0
10
88.298896722873863
20
35.215984662089269
30
0
10
88.278504687409253
20
35.015564792538392
30
0
0
SPLINE
5
124
100
AcDbEntity
8
0
100
AcDbSpline
70
4
71
5
72
21
73
15
74
0
42
0.000000001
43
0.0000000001
44
0.0000000001
40
-1
40
-1
40
-1
40
-1
40
-1
40
-1
40
-0.89999999999999991
40
-0.79999999999999993
40
-0.69999999999999996
40
-0.59999999999999998
40
-0.5
40
-0.40000000000000002
40
-0.30000000000000004
40
-0.20000000000000001
40
-0.10000000000000001
40
-0.016324538714526323
40
-0.016324538714526323
40
-0.016324538714526323
40
-0.016324538714526323
40
-0.016324538714526323
40
-0.016324538714526323
41
1
41
1
41
1
41
1
41
1
41
1
41
1
41
1
41
1
41
1
41
1
41
1
41
1
41
1
41
1
10
88.278504687409253
20
35.015564792538392
30
0
10
88.157473765536281
20
34.428841290870402
30
0
10
87.904115315965967
20
33.257373558579054
30
0
10
87.490193000425563
20
31.506108578430592
30
0
10
86.879194174427312
20
29.18048324713936
30
0
10
86.063432143484079
20
26.27464226652766
30
0
10
85.250358543605756
20
23.350898923337098
30
0
10
84.488187476055501
20
20.388763504685706
30
0
10
83.801689524304265
20
17.370137642676433
30
0
10
83.178879343046702
20
14.282576354047345
30
0
10
82.607721014624445
20
11.219934525621689
30
0
10
82.14999685374265
20
8.7272278556313303
30
0
10
81.796313189932022
20
6.8474714411671309
30
0
10
81.559130550828229
20
5.6146540393512225
30
0
10
81.44933345063518
20
5.0497624178865337
30
0
0
ARC
5
125
100
AcDbEntity
8
0
100
AcDbCircle
10
79.01217377917763
20
5.2386926720761888
30
0
40
2.4444717026644653
210
0
220
0
230
1
100
AcDbArc
50
255.23030835095355
51
355.56725796920915
0
LINE
5
126
100
AcDbEntity
8
0
100
AcDbLine
10
78.388994117600873
20
2.87499027656943
30
0
11
69.857088184699521
21
5.1243390412998568
31
0
0
ARC
5
127
100
AcDbEntity
8
0
100
AcDbCircle
10
70.278834583146676
20
7.2278864198289794
30
0
40
2.1454094244036259
210
0
220
0
230
1
100
AcDbArc
50
173.88133563471956
51
258.66291300198162
0
ARC
5
128
100
AcDbEntity
8
0
100
AcDbCircle
10
61.931251443907122
20
8.1227356455918507
30
0
40
6.2499999999999911
210
-0
220
0
230
1
100
AcDbArc
50
-6.1186600185406697
51
158.9615308076043
0
ARC
5
129
100
AcDbEntity
8
0
100
AcDbCircle
10
53.373890349347597
20
11.414192627811486
30
0
40
2.9185395766437727
210
0
220
0
230
1
100
AcDbArc
50
248.87859563783138
51
338.96153123379719
0
LINE
5
130
100
AcDbEntity
8
0
100
AcDbLine
10
52.322208293279601
20
8.6917235070718952
30
0
11
-14.974846564373205
21
22.903950243213153
31
0
0
ARC
5
131
100
AcDbEntity
8
0
100
AcDbCircle
10
-16.731192427012303
20
14.587385495025904
30
0
40
8.5000000000000178
210
0
220
-0
230
1
100
AcDbArc
50
78.075128586587013
51
180
0
LINE
5
132
100
AcDbEntity
8
0
100
AcDbLine
10
-25.231192427012324
20
14.587385495025911
30
0
11
-25.231192427012328
21
4.2596629268630526
31
0
0
ARC
5
133
100
AcDbEntity
8
0
100
AcDbCircle
10
-27.731192427012328
20
4.259662926863049
30
0
40
2.4999999999999991
210
0
220
0
230
1
100
AcDbArc
50
-49.823017821639056
51
0
0
LINE
5
134
100
AcDbEntity
8
0
100
AcDbLine
10
-26.118315450278601
20
2.3495247491590723
30
0
11
-32.19943479748391
21
-2.7852333025683507
31
0
0
ARC
5
135
100
AcDbEntity
8
0
100
AcDbCircle
10
-35.263901053277976
20
0.84402923506918581
30
0
40
4.7499999999999822
210
0
220
0
230
1
100
AcDbArc
50
269.99999999999989
51
310.17698217836096
0
LINE
5
136
100
AcDbEntity
8
0
100
AcDbLine
10
-35.263901053277984
20
-3.905970764930796
30
0
11
-37.01921082209676
21
-3.9059707649307995
31
0
0
ARC
5
137
100
AcDbEntity
8
0
100
AcDbCircle
10
-37.019210776341801
20
-1.2950178413020441
30
0
40
2.6109529236287536
210
0
220
0
230
1
100
AcDbArc
50
205.44486125903944
51
269.99999899593519
0
ARC
5
138
100
AcDbEntity
8
0
100
AcDbCircle
10
-44.794893917346215
20
-4.9946478151845763
30
0
40
5.9999999999999947
210
0
220
-0
230
1
100
AcDbArc
50
25.444865708441188
51
122.18723115039862
0
ARC
5
139
100
AcDbEntity
8
0
100
AcDbCircle
10
-49.617254663666316
20
2.6669312733134616
30
0
40
3.0528977292886323
210
0
220
0
230
1
100
AcDbArc
50
205.12886535059727
51
302.1870901964225
0
LINE
5
140
100
AcDbEntity
8
0
100
AcDbLine
10
-52.381210809144918
20
1.3705011859709983
30
0
11
-56.555604139609557
21
3.5302327254389088
31
0
0
ARC
5
141
100
AcDbEntity
8
0
100
AcDbCircle
10
-53.990067003484619
20
8.4889791781289716
30
0
40
5.5831126783276126
210
0
220
0
230
1
100
AcDbArc
50
126.58239030036081
51
242.64403271030045
0
ARC
5
142
100
AcDbEntity
8
0
100
AcDbCircle
10
-60.893348525708888
20
17.790226596823146
30
0
40
6.0000000000006093
210
-0
220
0
230
1
100
AcDbArc
50
-53.417609693767034
51
102.08717326034699
0
CIRCLE
5
143
100
AcDbEntity
8
0
100
AcDbCircle
10
-44.794893917346215
20
-4.9946478151845763
30
0
40
3.2500000000000018
210
0
220
-0
230
1
0
ARC
5
144
100
AcDbEntity
8
0
100
AcDbCircle
10
-29.474604232203166
20
-108.07864212409075
30
0
40
7.0187531266093774
210
0
220
0
230
1
100
AcDbArc
50
199.02021998610533
51
272.93733428574723
0
ARC
5
145
100
AcDbEntity
8
0
100
AcDbCircle
10
-43.957008921780599
20
-113.07105153852278
30
0
40
8.2999999999999812
210
0
220
-0
230
1
100
AcDbArc
50
19.020219999259037
51
84.391012382747149
0
ARC
5
146
100
AcDbEntity
8
0
100
AcDbCircle
10
-42.333258834602809
20
-96.537466842978432
30
0
40
8.3131269552227582
210
0
220
0
230
1
100
AcDbArc
50
185.72418258161534
51
264.39101620080459
0
LINE
5
147
100
AcDbEntity
8
0
100
AcDbLine
10
-50.604932896649338
20
-97.366615795168471
30
0
11
-51.16167111033198
21
-93.887382536170094
31
0
0
LINE
5
148
100
AcDbEntity
8
0
100
AcDbLine
10
-51.16167111033198
20
-93.887382536170094
30
0
11
-68.935553953092139
21
-96.731514862879891
31
0
0
LINE
5
149
100
AcDbEntity
8
0
100
AcDbLine
10
-68.935553953092139
20
-96.731514862879891
30
0
11
-79.44304282676984
21
-31.066892138238089
31
0
0
LINE
5
150
100
AcDbEntity
8
0
100
AcDbLine
10
-79.44304282676984
20
-31.066892138238089
30
0
11
-49.006510665945328
21
-26.196514303672636
31
0
0
ARC
5
151
100
AcDbEntity
8
0
100
AcDbCircle
10
-49.836049261235679
20
-21.012465141200913
30
0
40
5.2500000000000089
210
-0
220
0
230
1
100
AcDbArc
50
-80.908745342609208
51
9.0912546573906869
0
LINE
5
152
100
AcDbEntity
8
0
100
AcDbLine
10
-44.652000098763942
20
-20.182926545910568
30
0
11
-45.647582934615073
21
-13.961214384876355
31
0
0
ARC
5
153
100
AcDbEntity
8
0
100
AcDbCircle
10
-43.029806505754863
20
-13.475388503978021
30
0
40
2.6624763319223548
210
0
220
0
230
1
100
AcDbArc
50
101.75706184926302
51
190.51374720320473
0
ARC
5
154
100
AcDbEntity
8
0
100
AcDbCircle
10
-44.794893917346215
20
-4.9946478151845763
30
0
40
6.0000000000000009
210
-0
220
0
230
1
100
AcDbArc
50
281.75706454200986
51
314.13455363036888
0
LINE
5
155
100
AcDbEntity
8
0
100
AcDbLine
10
-40.616819394800018
20
-9.3008866943052375
30
0
11
-34.790308505350112
21
-9.3008866943052393
31
0
0
ARC
5
156
100
AcDbEntity
8
0
100
AcDbCircle
10
-34.790308505350126
20
-0.300886694305178
30
0
40
9.0000000000000604
210
-0
220
0
230
1
100
AcDbArc
50
270.00000000000011
51
310.17698217836067
0
LINE
5
157
100
AcDbEntity
8
0
100
AcDbLine
10
-28.983951389108697
20
-7.1773841340395652
30
0
11
-23.173042007510674
21
-2.2707851953538327
31
0
0
ARC
5
158
100
AcDbEntity
8
0
100
AcDbCircle
10
-28.818111426078666
20
4.4146984266100588
30
0
40
8.7499999999999449
210
-0
220
0
230
1
100
AcDbArc
50
-49.823017821639205
51
0
0
LINE
5
159
100
AcDbEntity
8
0
100
AcDbLine
10
-20.068111426078733
20
4.4146984266100882
30
0
11
-20.068111426078694
21
14.976625119706961
31
0
0
ARC
5
160
100
AcDbEntity
8
0
100
AcDbCircle
10
-17.318111426078747
20
14.976625119706956
30
0
40
2.7499999999999454
210
0
220
-0
230
1
100
AcDbArc
50
78.075128586586899
51
180
0
LINE
5
161
100
AcDbEntity
8
0
100
AcDbLine
10
-16.749881882283752
20
17.667278420591007
30
0
11
74.688975224553658
21
-1.6433700534738982
31
0
0
ARC
5
162
100
AcDbEntity
8
0
100
AcDbCircle
10
74.533095366309695
20
-3.7261500176793305
30
0
40
2.0886050151959736
210
-0
220
0
230
1
100
AcDbArc
50
-57.176540540376919
51
85.71983683243873
0
ARC
5
163
100
AcDbEntity
8
0
100
AcDbCircle
10
79.730600721845462
20
-11.783896862586936
30
0
40
7.5000000000085159
210
0
220
0
230
1
100
AcDbArc
50
122.82327455945783
51
244.18800784764989
0
ARC
5
164
100
AcDbEntity
8
0
100
AcDbCircle
10
74.280566837659521
20
-23.051814120415237
30
0
40
5.0167419350260367
210
0
220
0
230
1
100
AcDbArc
50
-6.4475937688995826
51
64.188007744259167
0
SPLINE
5
165
100
AcDbEntity
8
0
100
AcDbSpline
70
4
71
5
72
31
73
25
74
0
42
0.000000001
43
0.0000000001
44
0.0000000001
40
-0.97517914459595501
40
-0.97517914459595501
40
-0.97517914459595501
40
-0.97517914459595501
40
-0.97517914459595501
40
-0.97517914459595501
40
-0.95000000000000029
40
-0.90000000000000024
40
-0.8500000000000002
40
-0.80000000000000016
40
-0.75000000000000011
40
-0.70000000000000007
40
-0.65000000000000002
40
-0.59999999999999998
40
-0.54999999999999993
40
-0.49999999999999994
40
-0.44999999999999996
40
-0.39999999999999997
40
-0.34999999999999998
40
-0.29999999999999999
40
-0.25
40
-0.20000000000000001
40
-0.15000000000000002
40
-0.10000000000000001
40
-0.050000000000000003
40
0
40
0
40
0
40
0
40
0
40
0
41
1
41
1
41
1
41
1
41
1
41
1
41
1
41
1
41
1
41
1
41
1
41
1
41
1
41
1
41
1
41
1
41
1
41
1
41
1
41
1
41
1
41
1
41
1
41
1
41
1
10
79.265577792881018
20
-23.615166069884349
30
0
10
79.2625926640454
20
-23.79134919998538
30
0
10
79.256602504514305
20
-24.326815073033224
30
0
10
79.261163655224365
20
-25.265284222445146
30
0
10
79.301430378202639
20
-26.688051248007959
30
0
10
79.413416514088397
20
-28.713460429424863
30
0
10
79.608640230052444
20
-31.203118470932857
30
0
10
79.862556320797736
20
-33.913003558162004
30
0
10
80.152478031533462
20
-36.802046310743762
30
0
10
80.447616496084606
20
-39.813365157301547
30
0
10
80.713685643467954
20
-42.883126013849527
30
0
10
80.916683086603172
20
-45.947667306682519
30
0
10
81.027045595051007
20
-48.951273565716811
30
0
10
81.023701809476009
20
-51.853650265878642
30
0
10
80.898541896506572
20
-54.638081819004086
30
0
10
80.653095246104698
20
-57.305471130827989
30
0
10
80.295281546810884
20
-59.868446337336437
30
0
10
79.836314490380929
20
-62.34564530681503
30
0
10
79.287898372995812
20
-64.756501328951984
30
0
10
78.659033622473544
20
-67.11512350873592
30
0
10
77.955752050591286
20
-69.430112818033663
30
0
10
77.336570801485792
20
-71.250978215799066
30
0
10
76.841181413120736
20
-72.59995062441854
30
0
10
76.497199423135015
20
-73.491885564755137
30
0
10
76.321777774780912
20
-73.936007934522848
30
0
0
ARC
5
166
100
AcDbEntity
8
0
100
AcDbCircle
10
70.13694478891783
20
-71.503519143817755
30
0
40
6.645988322283289
210
0
220
0
230
1
100
AcDbArc
50
305.55492554648481
51
338.53033398539731
0
ARC
5
167
100
AcDbEntity
8
0
100
AcDbCircle
10
78.362598291775626
20
-83.012107678694605
30
0
40
7.5
210
0
220
0
230
1
100
AcDbArc
50
125.5549255256566
51
165.6286161223137
0
ARC
5
168
100
AcDbEntity
8
0
100
AcDbCircle
10
55.596685226292806
20
-67.731373591797919
30
0
40
20.502280011778751
210
0
220
0
230
1
100
AcDbArc
50
278.53644945898264
51
319.11660306109428
0
ARC
5
169
100
AcDbEntity
8
0
100
AcDbCircle
10
63.787089479371701
20
-122.2967675962085
30
0
40
34.674390281811085
210
0
220
0
230
1
100
AcDbArc
50
98.536547975116605
51
154.13567964963613
0
ARC
5
170
100
AcDbEntity
8
0
100
AcDbCircle
10
18.652519067961396
20
-100.41546112090984
30
0
40
15.484567236167809
210
0
220
0
230
1
100
AcDbArc
50
267.0172467757576
51
334.13614685768493
0
LINE
5
171
100
AcDbEntity
8
0
100
AcDbLine
10
17.846774139860145
20
-115.87905053612133
30
0
11
-29.114937345412276
21
-115.08817386186291
31
0
0
CIRCLE
5
172
100
AcDbEntity
8
0
100
AcDbCircle
10
14.995009982316233
20
67.414429211752463
30
0
40
3.2499999999999973
210
0
220
-0
230
1
0
CIRCLE
5
173
100
AcDbEntity
8
0
100
AcDbCircle
10
79.730600721845462
20
-11.783896862586936
30
0
40
3.2499999999999929
210
0
220
-0
230
1
0
CIRCLE
5
174
100
AcDbEntity
8
0
100
AcDbCircle
10
61.931251443907122
20
8.1227356455918507
30
0
40
3.2500000000000018
210
0
220
-0
230
1
0
ARC
5
175
100
AcDbEntity
8
0
100
AcDbCircle
10
-69.638890459995764
20
43.408109696900688
30
0
40
5.4769945778449971
210
0
220
0
230
1
100
AcDbArc
50
-33.973544703570241
51
21.786010664909423
0
ARC
5
176
100
AcDbEntity
8
0
100
AcDbCircle
10
-33.595510600050638
20
19.120849222814979
30
0
40
37.985589941087717
210
0
220
0
230
1
100
AcDbArc
50
146.02658003864101
51
189.09125465739072
0
LINE
5
177
100
AcDbEntity
8
0
100
AcDbLine
10
-71.103923118151783
20
13.118846761672966
30
0
11
-66.437584098049626
21
-16.0425822861251
31
0
0
ARC
5
178
100
AcDbEntity
8
0
100
AcDbCircle
10
-67.918741001612972
20
-16.279593313350919
30
0
40
1.5000000000000031
210
0
220
0
230
1
100
AcDbArc
50
-80.908745342609606
51
9.0912546573909712
0
LINE
5
179
100
AcDbEntity
8
0
100
AcDbLine
10
-67.681729974387167
20
-17.760750216914271
30
0
11
-86.162652670504372
21
-20.718021294508961
31
0
0
LINE
5
180
100
AcDbEntity
8
0
100
AcDbLine
10
-86.162652670504372
20
-20.718021294508961
30
0
11
-72.099998388439417
21
-108.59999757260084
31
0
0
LINE
5
181
100
AcDbEntity
8
0
100
AcDbLine
10
-72.099998388439417
20
-108.59999757260084
30
0
11
-55.034112467549683
21
-105.86915714448838
31
0
0
ARC
5
182
100
AcDbEntity
8
0
100
AcDbCircle
10
-54.797101440323857
20
-107.35031404805176
30
0
40
1.5000000000000038
210
0
220
-0
230
1
100
AcDbArc
50
9.0912546573903672
51
99.091254657391076
0
LINE
5
183
100
AcDbEntity
8
0
100
AcDbLine
10
-53.315944536760504
20
-107.11330302082595
30
0
11
-52.152743788164457
21
-114.38251255583896
31
0
0
ARC
5
184
100
AcDbEntity
8
0
100
AcDbCircle
10
-43.957008921780599
20
-113.07105153852278
30
0
40
8.3000000000000007
210
0
220
0
230
1
100
AcDbArc
50
189.09125465739081
51
285.13327985336076
0
ARC
5
185
100
AcDbEntity
8
0
100
AcDbCircle
10
-38.941648003690979
20
-131.61597045974924
30
0
40
10.911139032695678
210
0
220
-0
230
1
100
AcDbArc
50
88.740803481158778
51
105.13328013535236
0
LINE
5
186
100
AcDbEntity
8
0
100
AcDbLine
10
-38.701871838106115
20
-120.70746632851142
30
0
11
0.21631684242883864
21
-121.36288297876398
31
0
0
ARC
5
187
100
AcDbEntity
8
0
100
AcDbCircle
10
0.5704355495906519
20
-127.16810357825815
30
0
40
5.8160111990567422
210
0
220
-0
230
1
100
AcDbArc
50
9.8241894610197598
51
93.490719649337919
0
ARC
5
188
100
AcDbEntity
8
0
100
AcDbCircle
10
12.902902324736942
20
-125.0325007184483
30
0
40
6.7000000000969209
210
0
220
0
230
1
100
AcDbArc
50
189.82464142658634
51
355.19406621759197
0
ARC
5
189
100
AcDbEntity
8
0
100
AcDbCircle
10
24.893228572111035
20
-126.04069078478774
30
0
40
5.3326377294562342
210
0
220
0
230
1
100
AcDbArc
50
104.23065364612047
51
175.19317000829878
0
ARC
5
190
100
AcDbEntity
8
0
100
AcDbCircle
10
18.54390648746017
20
-101.00474597945703
30
0
40
20.49588184155677
210
-0
220
0
230
1
100
AcDbArc
50
284.23065408579771
51
332.48447375869637
0
ARC
5
191
100
AcDbEntity
8
0
100
AcDbCircle
10
65.103196979098414
20
-125.25831237792373
30
0
40
32.001765859360134
210
0
220
0
230
1
100
AcDbArc
50
99.524105778348783
51
152.48400414380606
0
ARC
5
192
100
AcDbEntity
8
0
100
AcDbCircle
10
56.000000834464956
20
-71.000001057982431
30
0
40
23.014890957819688
210
-0
220
0
230
1
100
AcDbArc
50
279.52410580501112
51
304.22084963297664
0
ARC
5
193
100
AcDbEntity
8
0
100
AcDbCircle
10
72.229231430849524
20
-94.861905913819072
30
0
40
5.8430096778749938
210
0
220
-0
230
1
100
AcDbArc
50
62.634254303723026
51
124.2208500274246
0
ARC
5
194
100
AcDbEntity
8
0
100
AcDbCircle
10
78.362598291775626
20
-83.012107678694605
30
0
40
7.5
210
0
220
0
230
1
100
AcDbArc
50
235.57442172765181
51
242.63425440112621
0
ARC
5
195
100
AcDbEntity
8
0
100
AcDbCircle
10
63.787089479371701
20
-122.2967675962085
30
0
40
34.674390281792014
210
0
220
-0
230
1
100
AcDbArc
50
66.629875113783086
51
72.658109713606052
0
ARC
5
196
100
AcDbEntity
8
0
100
AcDbCircle
10
78.362598291775626
20
-83.012107678694605
30
0
40
7.5000000000000018
210
0
220
0
230
1
100
AcDbArc
50
-96.2864369002627
51
43.545881185382157
0
ARC
5
197
100
AcDbEntity
8
0
100
AcDbCircle
10
87.992184514015321
20
-73.859305098009969
30
0
40
5.7854328455092485
210
0
220
0
230
1
100
AcDbArc
50
156.20028006669247
51
223.54588117515743
0
SPLINE
5
198
100
AcDbEntity
8
0
100
AcDbSpline
70
4
71
5
72
31
73
25
74
0
42
0.000000001
43
0.0000000001
44
0.0000000001
40
0.011061363243696838
40
0.011061363243696838
40
0.011061363243696838
40
0.011061363243696838
40
0.011061363243696838
40
0.011061363243696838
40
0.050000000000000003
40
0.10000000000000001
40
0.15000000000000002
40
0.20000000000000001
40
0.25
40
0.29999999999999999
40
0.34999999999999998
40
0.39999999999999997
40
0.44999999999999996
40
0.49999999999999994
40
0.54999999999999993
40
0.59999999999999998
40
0.65000000000000002
40
0.70000000000000007
40
0.75000000000000011
40
0.80000000000000016
40
0.8500000000000002
40
0.90000000000000024
40
0.95000000000000029
40
1
40
1
40
1
40
1
40
1
40
1
41
1
41
1
41
1
41
1
41
1
41
1
41
1
41
1
41
1
41
1
41
1
41
1
41
1
41
1
41
1
41
1
41
1
41
1
41
1
41
1
41
1
41
1
41
1
41
1
41
1
10
82.698735387246927
20
-71.524646760648253
30
0
10
82.865716405571547
20
-71.067035095510164
30
0
10
83.235424782353405
20
-70.022153800576504
30
0
10
83.771245601172126
20
-68.391055841907601
30
0
10
84.410897175843076
20
-66.175505508110803
30
0
10
85.065496281355735
20
-63.377315724954656
30
0
10
85.579100843126128
20
-60.451151490555276
30
0
10
85.924128679091183
20
-57.521294636813792
30
0
10
86.108173309432459
20
-54.579073900316843
30
0
10
86.146476485534151
20
-51.610665669010643
30
0
10
86.061998200831184
20
-48.599061146476586
30
0
10
85.882555863866216
20
-45.530117563037471
30
0
10
85.638964499522899
20
-42.397473333348152
30
0
10
85.362917111071468
20
-39.20833890863495
30
0
10
85.085142855475695
20
-35.98861458492329
30
0
10
84.833330469645915
20
-32.790165120697054
30
0
10
84.631721585423236
20
-29.682762976215542
30
0
10
84.500939568968363
20
-26.743953134096582
30
0
10
84.457566808539298
20
-24.04926481030013
30
0
10
84.513835456088884
20
-21.6631954944223
30
0
10
84.676746110134872
20
-19.626878059648202
30
0
10
84.894174057276103
20
-18.290079863858352
30
0
10
85.106187619782659
20
-17.453004242379787
30
0
10
85.26919056498636
20
-16.96819729005253
30
0
10
85.356107370260929
20
-16.744106026385715
30
0
0
ARC
5
199
100
AcDbEntity
8
0
100
AcDbCircle
10
79.730600721845462
20
-11.783896862586936
30
0
40
7.5000000000000169
210
-0
220
0
230
1
100
AcDbArc
50
-41.40377011113862
51
42.520579971786923
0
SPLINE
5
200
100
AcDbEntity
8
0
100
AcDbSpline
70
4
71
5
72
21
73
15
74
0
42
0.000000001
43
0.0000000001
44
0.0000000001
40
0
40
0
40
0
40
0
40
0
40
0
40
0.10000000000000001
40
0.20000000000000001
40
0.30000000000000004
40
0.40000000000000002
40
0.5
40
0.59999999999999998
40
0.69999999999999996
40
0.79999999999999993
40
0.89999999999999991
40
1
40
1
40
1
40
1
40
1
40
1
41
1
41
1
41
1
41
1
41
1
41
1
41
1
41
1
41
1
41
1
41
1
41
1
41
1
41
1
41
1
10
85.258360410685441
20
-6.7149844720996201
30
0
10
85.329933652255107
20
-6.0346552861531855
30
0
10
85.479573114836029
20
-4.6690443684545828
30
0
10
85.723511339137644
20
-2.6057702842358008
30
0
10
86.088360492216012
20
0.17546550241105227
30
0
10
86.614784233003675
20
3.705679358526826
30
0
10
87.21740928507208
20
7.2940160668857228
30
0
10
87.901758840390457
20
10.944688464065077
30
0
10
88.669549713672779
20
14.659006057301543
30
0
10
89.516129928316573
20
18.433420533007904
30
0
10
90.434963986326068
20
22.262946914186873
30
0
10
91.22280587772434
20
25.366822088824264
30
0
10
91.841441954309758
20
27.715898445257189
30
0
10
92.265998815307469
20
29.291203698430714
30
0
10
92.481310620932248
20
30.081170043921102
30
0
0
ARC
5
201
100
AcDbEntity
8
0
100
AcDbCircle
10
62.125327991201615
20
38.649732433079009
30
0
40
31.542129649619408
210
-0
220
0
230
1
100
AcDbArc
50
-15.762744742322528
51
33.118981745419383
0
ARC
5
202
100
AcDbEntity
8
0
100
AcDbCircle
10
80.682938680463906
20
58.220071937272458
30
0
40
8.2000000000000277
210
-0
220
0
230
1
100
AcDbArc
50
-16.554239203456504
51
116.77775663875985
0
ARC
5
203
100
AcDbEntity
8
0
100
AcDbCircle
10
64.483308628846089
20
43.249080114236037
30
0
40
25.559708694264028
210
0
220
-0
230
1
100
AcDbArc
50
60.708217393660703
51
88.590349869893657
0
LINE
5
204
100
AcDbEntity
8
0
100
AcDbLine
10
65.112091624640684
20
68.801053432941487
30
0
11
25.600000600154857
21
69.313349288505123
31
0
0
ARC
5
205
100
AcDbEntity
8
0
100
AcDbCircle
10
25.137441251211978
20
73.745509642557835
30
0
40
4.4562323273513282
210
0
220
0
230
1
100
AcDbArc
50
211.97312091011625
51
275.95806529374352
0
ARC
5
206
100
AcDbEntity
8
0
100
AcDbCircle
10
14.995009982316233
20
67.414429211752463
30
0
40
7.499999999999992
210
0
220
-0
230
1
100
AcDbArc
50
31.973120917419596
51
145.0030216988099
0
ARC
5
207
100
AcDbEntity
8
0
100
AcDbCircle
10
5.1317119650280514
20
74.320009660702482
30
0
40
4.5404189758812592
210
0
220
0
230
1
100
AcDbArc
50
269.7828003175141
51
325.00302158405884
0
LINE
5
208
100
AcDbEntity
8
0
100
AcDbLine
10
5.1144999608226316
20
69.779623308919867
30
0
11
-12.662156620514793
21
69.847012263103437
31
0
0
ARC
5
209
100
AcDbEntity
8
0
100
AcDbCircle
10
-12.695901680120606
20
60.945340717723646
30
0
40
8.901735506679131
210
0
220
-0
230
1
100
AcDbArc
50
89.782800317514102
51
155.13061984488942
0
ARC
5
210
100
AcDbEntity
8
0
100
AcDbCircle
10
-28.300685130689711
20
68.178695066498932
30
0
40
8.2979936096209705
210
0
220
0
230
1
100
AcDbArc
50
279.74298532726823
51
335.13068957030237
0
LINE
5
211
100
AcDbEntity
8
0
100
AcDbLine
10
-26.896425282834706
20
60.000385202901647
30
0
11
-38.941251593373906
21
57.932223657988246
31
0
0
SPLINE
5
212
100
AcDbEntity
8
0
100
AcDbSpline
70
4
71
5
72
21
73
15
74
0
42
0.000000001
43
0.0000000001
44
0.0000000001
40
-1
40
-1
40
-1
40
-1
40
-1
40
-1
40
-0.89999999999999991
40
-0.79999999999999993
40
-0.69999999999999996
40
-0.59999999999999998
40
-0.5
40
-0.40000000000000002
40
-0.30000000000000004
40
-0.20000000000000001
40
-0.10000000000000001
40
-0.03531377916895647
40
-0.03531377916895647
40
-0.03531377916895647
40
-0.03531377916895647
40
-0.03531377916895647
40
-0.03531377916895647
41
1
41
1
41
1
41
1
41
1
41
1
41
1
41
1
41
1
41
1
41
1
41
1
41
1
41
1
41
1
10
-38.941251593373906
20
57.932223657988246
30
0
10
-39.160359768941333
20
57.88947531925659
30
0
10
-39.597425124240225
20
57.80231314791515
30
0
10
-40.249570307159161
20
57.666573608200444
30
0
10
-41.112076716969163
20
57.475428872954694
30
0
10
-42.17770896685046
20
57.218409319197761
30
0
10
-43.229700880006291
20
56.941652163789811
30
0
10
-44.266903833556739
20
56.64349534652446
30
0
10
-45.288627247189027
20
56.322939595943964
30
0
10
-46.295401496479045
20
55.98075236683929
30
0
10
-47.218193440807632
20
55.644100950609385
30
0
10
-47.933929884588181
20
55.367638124259258
30
0
10
-48.449191322444662
20
55.160885880119544
30
0
10
-48.76818101675439
20
55.029926349462897
30
0
10
-48.893228876883725
20
54.978130917025965
30
0
0
ARC
5
213
100
AcDbEntity
8
0
100
AcDbCircle
10
-51.125357018237587
20
59.837016419826689
30
0
40
5.3470706343521872
210
0
220
0
230
1
100
AcDbArc
50
241.58968459800613
51
294.67362310136446
0
ARC
5
214
100
AcDbEntity
8
0
100
AcDbCircle
10
-57.356651682786442
20
48.317284391486098
30
0
40
7.7500000001363514
210
0
220
-0
230
1
100
AcDbArc
50
61.590216470913525
51
201.78675142619451
0
ENDSEC
0
SECTION
2
OBJECTS
0
DICTIONARY
5
C
100
AcDbDictionary
3
ACAD_GROUP
350
D
3
ACAD_MLINESTYLE
350
17
0
DICTIONARY
5
D
100
AcDbDictionary
0
DICTIONARY
5
1A
330
C
100
AcDbDictionary
0
DICTIONARY
5
17
100
AcDbDictionary
0
ENDSEC
0
EOF
