999
dxflib 3.17.0.0
  0
SECTION
  2
HEADER
  9
$ACADVER
  1
AC1015
  9
$HANDSEED
  5
FFFF
  9
$DIMADEC
 70
0
  9
$DIMASZ
 40
2.5
  9
$DIMAUNIT
 70
0
  9
$DIMAZIN
 70
2
  9
$DIMDEC
 70
2
  9
$DIMDLI
 40
5.0
  9
$DIMDSEP
 70
46
  9
$DIMEXE
 40
1.25
  9
$DIMEXO
 40
0.625
  9
$DIMGAP
 40
0.625
  9
$DIMLUNIT
 70
2
  9
$DIMSCALE
 40
1.0
  9
$DIMTSZ
 40
0.0
  9
$DIMTXT
 40
2.5
  9
$DIMZIN
 70
8
  9
$DWGCODEPAGE
  3
ANSI_1252
  9
$INSUNITS
 70
5
  9
$LTSCALE
 40
1.0
  9
$MAXACTVP
 70
64
  9
$MEASUREMENT
 70
1
  9
$PDMODE
 70
0
  9
$PDSIZE
 40
0.0
  0
ENDSEC
  0
SECTION
  2
TABLES
  0
TABLE
  2
VPORT
  5
8
100
AcDbSymbolTable
 70
1
  0
VPORT
  5
30
100
AcDbSymbolTableRecord
100
AcDbViewportTableRecord
  2
*Active
 70
0
 10
0.0
 20
0.0
 11
1.0
 21
1.0
 12
286.3055555555554861
 22
148.5
 13
0.0
 23
0.0
 14
10.0
 24
10.0
 15
10.0
 25
10.0
 16
0.0
 26
0.0
 36
1.0
 17
0.0
 27
0.0
 37
0.0
 40
297.0
 41
1.92798353909465
 42
50.0
 43
0.0
 44
0.0
 50
0.0
 51
0.0
 71
0
 72
100
 73
1
 74
3
 75
1
 76
1
 77
0
 78
0
281
0
 65
1
110
0.0
120
0.0
130
0.0
111
1.0
121
0.0
131
0.0
112
0.0
122
1.0
132
0.0
 79
0
146
0.0
  0
ENDTAB
  0
TABLE
  2
LTYPE
  5
5
100
AcDbSymbolTable
 70
41
  0
LTYPE
  5
16
100
AcDbSymbolTableRecord
100
AcDbLinetypeTableRecord
  2
Continuous
 70
0
  3
Solid line
 72
65
 73
0
 40
0.0
  0
LTYPE
  5
31
100
AcDbSymbolTableRecord
100
AcDbLinetypeTableRecord
  2
DASHDOT2
 70
0
  3
Dash dot (.5x) _._._._._._._._._._._._._._._.
 72
65
 73
4
 40
12.6999999999999993
 49
6.3499999999999996
 74
0
 49
-3.1749999999999998
 74
0
 49
0.0
 74
0
 49
-3.1749999999999998
 74
0
  0
LTYPE
  5
32
100
AcDbSymbolTableRecord
100
AcDbLinetypeTableRecord
  2
DOTX2
 70
0
  3
Dot (2x) .  .  .  .  .  .  .  .  .  .  .  .  .  .
 72
65
 73
2
 40
12.6999999999999993
 49
0.0
 74
0
 49
-12.6999999999999993
 74
0
  0
LTYPE
  5
33
100
AcDbSymbolTableRecord
100
AcDbLinetypeTableRecord
  2
CENTERX2
 70
0
  3
Center (2x) ________  __  ________  __  _____
 72
65
 73
4
 40
101.6000000000000085
 49
63.5
 74
0
 49
-12.6999999999999993
 74
0
 49
12.6999999999999993
 74
0
 49
-12.6999999999999993
 74
0
  0
LTYPE
  5
34
100
AcDbSymbolTableRecord
100
AcDbLinetypeTableRecord
  2
DOT
 70
0
  3
Dot . . . . . . . . . . . . . . . . . . . . . . . .
 72
65
 73
2
 40
6.3499999999999996
 49
0.0
 74
0
 49
-6.3499999999999996
 74
0
  0
LTYPE
  5
35
100
AcDbSymbolTableRecord
100
AcDbLinetypeTableRecord
  2
ACAD_ISO03W100
 70
0
  3
ISO dash space __    __    __    __    __    __
 72
65
 73
2
 40
30.0
 49
12.0
 74
0
 49
-18.0
 74
0
  0
LTYPE
  5
36
100
AcDbSymbolTableRecord
100
AcDbLinetypeTableRecord
  2
ACAD_ISO08W100
 70
0
  3
ISO long-dash short-dash ____ __ ____ __ ____ _
 72
65
 73
4
 40
36.0
 49
24.0
 74
0
 49
-3.0
 74
0
 49
6.0
 74
0
 49
-3.0
 74
0
  0
LTYPE
  5
37
100
AcDbSymbolTableRecord
100
AcDbLinetypeTableRecord
  2
DIVIDE2
 70
0
  3
Divide (.5x) __..__..__..__..__..__..__..__.._
 72
65
 73
6
 40
15.875
 49
6.3499999999999996
 74
0
 49
-3.1749999999999998
 74
0
 49
0.0
 74
0
 49
-3.1749999999999998
 74
0
 49
0.0
 74
0
 49
-3.1749999999999998
 74
0
  0
LTYPE
  5
38
100
AcDbSymbolTableRecord
100
AcDbLinetypeTableRecord
  2
BORDER
 70
0
  3
Border __ __ . __ __ . __ __ . __ __ . __ __ .
 72
65
 73
6
 40
44.4499999999999957
 49
12.6999999999999993
 74
0
 49
-6.3499999999999996
 74
0
 49
12.6999999999999993
 74
0
 49
-6.3499999999999996
 74
0
 49
0.0
 74
0
 49
-6.3499999999999996
 74
0
  0
LTYPE
  5
39
100
AcDbSymbolTableRecord
100
AcDbLinetypeTableRecord
  2
ACAD_ISO13W100
 70
0
  3
ISO double-dash double-dot __ __ . . __ __ . . _
 72
65
 73
8
 40
36.0
 49
12.0
 74
0
 49
-3.0
 74
0
 49
12.0
 74
0
 49
-3.0
 74
0
 49
0.0
 74
0
 49
-3.0
 74
0
 49
0.0
 74
0
 49
-3.0
 74
0
  0
LTYPE
  5
3A
100
AcDbSymbolTableRecord
100
AcDbLinetypeTableRecord
  2
DASHDOT
 70
0
  3
Dash dot __ . __ . __ . __ . __ . __ . __ . __
 72
65
 73
4
 40
25.3999999999999986
 49
12.6999999999999993
 74
0
 49
-6.3499999999999996
 74
0
 49
0.0
 74
0
 49
-6.3499999999999996
 74
0
  0
LTYPE
  5
3B
100
AcDbSymbolTableRecord
100
AcDbLinetypeTableRecord
  2
PHANTOM2
 70
0
  3
Phantom (.5x) ___ _ _ ___ _ _ ___ _ _ ___ _ _
 72
65
 73
6
 40
31.7500000000000036
 49
15.875
 74
0
 49
-3.1749999999999998
 74
0
 49
3.1749999999999998
 74
0
 49
-3.1749999999999998
 74
0
 49
3.1749999999999998
 74
0
 49
-3.1749999999999998
 74
0
  0
LTYPE
  5
3C
100
AcDbSymbolTableRecord
100
AcDbLinetypeTableRecord
  2
HIDDENX2
 70
0
  3
Hidden (2x) ____ ____ ____ ____ ____ ____ ____ 
 72
65
 73
2
 40
19.0499999999999972
 49
12.6999999999999993
 74
0
 49
-6.3499999999999996
 74
0
  0
LTYPE
  5
3D
100
AcDbSymbolTableRecord
100
AcDbLinetypeTableRecord
  2
ACAD_ISO10W100
 70
0
  3
ISO dash dot __ . __ . __ . __ . __ . __ . __ . 
 72
65
 73
4
 40
18.0
 49
12.0
 74
0
 49
-3.0
 74
0
 49
0.0
 74
0
 49
-3.0
 74
0
  0
LTYPE
  5
3E
100
AcDbSymbolTableRecord
100
AcDbLinetypeTableRecord
  2
DASHED
 70
0
  3
Dashed __ __ __ __ __ __ __ __ __ __ __ __ __ _
 72
65
 73
2
 40
19.0499999999999972
 49
12.6999999999999993
 74
0
 49
-6.3499999999999996
 74
0
  0
LTYPE
  5
3F
100
AcDbSymbolTableRecord
100
AcDbLinetypeTableRecord
  2
ACAD_ISO05W100
 70
0
  3
ISO long-dash double-dot ____ .. ____ .. ____ . 
 72
65
 73
6
 40
33.0
 49
24.0
 74
0
 49
-3.0
 74
0
 49
0.0
 74
0
 49
-3.0
 74
0
 49
0.0
 74
0
 49
-3.0
 74
0
  0
LTYPE
  5
40
100
AcDbSymbolTableRecord
100
AcDbLinetypeTableRecord
  2
CENTER2
 70
0
  3
Center (.5x) ___ _ ___ _ ___ _ ___ _ ___ _ ___
 72
65
 73
4
 40
28.5750000000000028
 49
19.0500000000000007
 74
0
 49
-3.1749999999999998
 74
0
 49
3.1749999999999998
 74
0
 49
-3.1749999999999998
 74
0
  0
LTYPE
  5
41
100
AcDbSymbolTableRecord
100
AcDbLinetypeTableRecord
  2
CENTER
 70
0
  3
Center ____ _ ____ _ ____ _ ____ _ ____ _ ____
 72
65
 73
4
 40
50.8000000000000043
 49
31.75
 74
0
 49
-6.3499999999999996
 74
0
 49
6.3499999999999996
 74
0
 49
-6.3499999999999996
 74
0
  0
LTYPE
  5
42
100
AcDbSymbolTableRecord
100
AcDbLinetypeTableRecord
  2
DASHED2
 70
0
  3
Dashed (.5x) _ _ _ _ _ _ _ _ _ _ _ _ _ _ _ _ _ 
 72
65
 73
2
 40
9.5249999999999986
 49
6.3499999999999996
 74
0
 49
-3.1749999999999998
 74
0
  0
LTYPE
  5
43
100
AcDbSymbolTableRecord
100
AcDbLinetypeTableRecord
  2
ACAD_ISO02W100
 70
0
  3
ISO dash __ __ __ __ __ __ __ __ __ __ __ __ __
 72
65
 73
2
 40
15.0
 49
12.0
 74
0
 49
-3.0
 74
0
  0
LTYPE
  5
44
100
AcDbSymbolTableRecord
100
AcDbLinetypeTableRecord
  2
PHANTOM
 70
0
  3
Phantom ______  __  __  ______  __  __  ______ 
 72
65
 73
6
 40
63.5000000000000071
 49
31.75
 74
0
 49
-6.3499999999999996
 74
0
 49
6.3499999999999996
 74
0
 49
-6.3499999999999996
 74
0
 49
6.3499999999999996
 74
0
 49
-6.3499999999999996
 74
0
  0
LTYPE
  5
45
100
AcDbSymbolTableRecord
100
AcDbLinetypeTableRecord
  2
HIDDEN2
 70
0
  3
Hidden (.5x) _ _ _ _ _ _ _ _ _ _ _ _ _ _ _ _ _ 
 72
65
 73
2
 40
4.7624999999999993
 49
3.1749999999999998
 74
0
 49
-1.5874999999999999
 74
0
  0
LTYPE
  5
46
100
AcDbSymbolTableRecord
100
AcDbLinetypeTableRecord
  2
ACAD_ISO06W100
 70
0
  3
ISO long-dash triple-dot ____ ... ____ ... ____
 72
65
 73
8
 40
36.0
 49
24.0
 74
0
 49
-3.0
 74
0
 49
0.0
 74
0
 49
-3.0
 74
0
 49
0.0
 74
0
 49
-3.0
 74
0
 49
0.0
 74
0
 49
-3.0
 74
0
  0
LTYPE
  5
47
100
AcDbSymbolTableRecord
100
AcDbLinetypeTableRecord
  2
PHANTOMX2
 70
0
  3
Phantom (2x) ____________    ____    ____   _
 72
65
 73
6
 40
127.0000000000000142
 49
63.5
 74
0
 49
-12.6999999999999993
 74
0
 49
12.6999999999999993
 74
0
 49
-12.6999999999999993
 74
0
 49
12.6999999999999993
 74
0
 49
-12.6999999999999993
 74
0
  0
LTYPE
  5
48
100
AcDbSymbolTableRecord
100
AcDbLinetypeTableRecord
  2
HIDDEN
 70
0
  3
Hidden __ __ __ __ __ __ __ __ __ __ __ __ __ __
 72
65
 73
2
 40
9.5249999999999986
 49
6.3499999999999996
 74
0
 49
-3.1749999999999998
 74
0
  0
LTYPE
  5
49
100
AcDbSymbolTableRecord
100
AcDbLinetypeTableRecord
  2
ACAD_ISO04W100
 70
0
  3
ISO long-dash dot ____ . ____ . ____ . ____ . _
 72
65
 73
4
 40
30.0
 49
24.0
 74
0
 49
-3.0
 74
0
 49
0.0
 74
0
 49
-3.0
 74
0
  0
LTYPE
  5
4A
100
AcDbSymbolTableRecord
100
AcDbLinetypeTableRecord
  2
DASHEDX2
 70
0
  3
Dashed (2x) ____  ____  ____  ____  ____  ___
 72
65
 73
2
 40
38.0999999999999943
 49
25.3999999999999986
 74
0
 49
-12.6999999999999993
 74
0
  0
LTYPE
  5
4B
100
AcDbSymbolTableRecord
100
AcDbLinetypeTableRecord
  2
BORDERX2
 70
0
  3
Border (2x) ____  ____  .  ____  ____  .  ___
 72
65
 73
6
 40
88.8999999999999915
 49
25.3999999999999986
 74
0
 49
-12.6999999999999993
 74
0
 49
25.3999999999999986
 74
0
 49
-12.6999999999999993
 74
0
 49
0.0
 74
0
 49
-12.6999999999999993
 74
0
  0
LTYPE
  5
4C
100
AcDbSymbolTableRecord
100
AcDbLinetypeTableRecord
  2
BORDER2
 70
0
  3
Border (.5x) __.__.__.__.__.__.__.__.__.__.__.
 72
65
 73
6
 40
22.2249999999999979
 49
6.3499999999999996
 74
0
 49
-3.1749999999999998
 74
0
 49
6.3499999999999996
 74
0
 49
-3.1749999999999998
 74
0
 49
0.0
 74
0
 49
-3.1749999999999998
 74
0
  0
LTYPE
  5
4D
100
AcDbSymbolTableRecord
100
AcDbLinetypeTableRecord
  2
DASHDOTX2
 70
0
  3
Dash dot (2x) ____  .  ____  .  ____  .  ___
 72
65
 73
4
 40
50.7999999999999972
 49
25.3999999999999986
 74
0
 49
-12.6999999999999993
 74
0
 49
0.0
 74
0
 49
-12.6999999999999993
 74
0
  0
LTYPE
  5
4E
100
AcDbSymbolTableRecord
100
AcDbLinetypeTableRecord
  2
ACAD_ISO14W100
 70
0
  3
ISO dash triple-dot __ . . . __ . . . __ . . . _
 72
65
 73
8
 40
24.0
 49
12.0
 74
0
 49
-3.0
 74
0
 49
0.0
 74
0
 49
-3.0
 74
0
 49
0.0
 74
0
 49
-3.0
 74
0
 49
0.0
 74
0
 49
-3.0
 74
0
  0
LTYPE
  5
4F
100
AcDbSymbolTableRecord
100
AcDbLinetypeTableRecord
  2
ACAD_ISO15W100
 70
0
  3
ISO double-dash triple-dot __ __ . . . __ __ . .
 72
65
 73
10
 40
39.0
 49
12.0
 74
0
 49
-3.0
 74
0
 49
12.0
 74
0
 49
-3.0
 74
0
 49
0.0
 74
0
 49
-3.0
 74
0
 49
0.0
 74
0
 49
-3.0
 74
0
 49
0.0
 74
0
 49
-3.0
 74
0
  0
LTYPE
  5
50
100
AcDbSymbolTableRecord
100
AcDbLinetypeTableRecord
  2
ACAD_ISO11W100
 70
0
  3
ISO double-dash dot __ __ . __ __ . __ __ . __ _
 72
65
 73
6
 40
33.0
 49
12.0
 74
0
 49
-3.0
 74
0
 49
12.0
 74
0
 49
-3.0
 74
0
 49
0.0
 74
0
 49
-3.0
 74
0
  0
LTYPE
  5
51
100
AcDbSymbolTableRecord
100
AcDbLinetypeTableRecord
  2
ACAD_ISO09W100
 70
0
  3
ISO long-dash double-short-dash ____ __ __ ____
 72
65
 73
6
 40
45.0
 49
24.0
 74
0
 49
-3.0
 74
0
 49
6.0
 74
0
 49
-3.0
 74
0
 49
6.0
 74
0
 49
-3.0
 74
0
  0
LTYPE
  5
15
100
AcDbSymbolTableRecord
100
AcDbLinetypeTableRecord
  2
BYLAYER
 70
0
  3

 72
65
 73
0
 40
0.0
  0
LTYPE
  5
14
100
AcDbSymbolTableRecord
100
AcDbLinetypeTableRecord
  2
BYBLOCK
 70
0
  3

 72
65
 73
0
 40
0.0
  0
LTYPE
  5
52
100
AcDbSymbolTableRecord
100
AcDbLinetypeTableRecord
  2
DIVIDE
 70
0
  3
Divide ____ . . ____ . . ____ . . ____ . . ____
 72
65
 73
6
 40
31.75
 49
12.6999999999999993
 74
0
 49
-6.3499999999999996
 74
0
 49
0.0
 74
0
 49
-6.3499999999999996
 74
0
 49
0.0
 74
0
 49
-6.3499999999999996
 74
0
  0
LTYPE
  5
53
100
AcDbSymbolTableRecord
100
AcDbLinetypeTableRecord
  2
ACAD_ISO07W100
 70
0
  3
ISO dot . . . . . . . . . . . . . . . . . . . . 
 72
65
 73
2
 40
3.0
 49
0.0
 74
0
 49
-3.0
 74
0
  0
LTYPE
  5
54
100
AcDbSymbolTableRecord
100
AcDbLinetypeTableRecord
  2
DOT2
 70
0
  3
Dot (.5x) ........................................
 72
65
 73
2
 40
3.1749999999999998
 49
0.0
 74
0
 49
-3.1749999999999998
 74
0
  0
LTYPE
  5
55
100
AcDbSymbolTableRecord
100
AcDbLinetypeTableRecord
  2
ACAD_ISO12W100
 70
0
  3
ISO dash double-dot __ . . __ . . __ . . __ . . 
 72
65
 73
6
 40
21.0
 49
12.0
 74
0
 49
-3.0
 74
0
 49
0.0
 74
0
 49
-3.0
 74
0
 49
0.0
 74
0
 49
-3.0
 74
0
  0
LTYPE
  5
56
100
AcDbSymbolTableRecord
100
AcDbLinetypeTableRecord
  2
DIVIDEX2
 70
0
  3
Divide (2x) ________  .  .  ________  .  .  _
 72
65
 73
6
 40
63.5
 49
25.3999999999999986
 74
0
 49
-12.6999999999999993
 74
0
 49
0.0
 74
0
 49
-12.6999999999999993
 74
0
 49
0.0
 74
0
 49
-12.6999999999999993
 74
0
  0
ENDTAB
  0
TABLE
  2
LAYER
  5
2
100
AcDbSymbolTable
 70
1
  0
LAYER
  5
10
100
AcDbSymbolTableRecord
100
AcDbLayerTableRecord
  2
0
 70
0
 62
7
420
16777215
  6
Continuous
370
200
390
F
  0
ENDTAB
  0
TABLE
  2
STYLE
  5
3
100
AcDbSymbolTable
 70
32
  0
STYLE
  5
57
100
AcDbSymbolTableRecord
100
AcDbTextStyleTableRecord
  2
Standard
 70
0
 40
0.0
 41
1.0
 50
0.0
 71
0
 42
2.5
  3

  4

1001
ACAD
1000
txt
1071
0
  0
STYLE
  5
58
100
AcDbSymbolTableRecord
100
AcDbTextStyleTableRecord
  2
textstyle0
 70
0
 40
0.0
 41
1.0
 50
0.0
 71
0
 42
8.0
  3

  4

1001
ACAD
1000
GOST type A
1071
16777216
  0
STYLE
  5
59
100
AcDbSymbolTableRecord
100
AcDbTextStyleTableRecord
  2
textstyle1
 70
0
 40
0.0
 41
1.0
 50
0.0
 71
0
 42
7.0
  3

  4

1001
ACAD
1000
GOST type A
1071
16777216
  0
STYLE
  5
5A
100
AcDbSymbolTableRecord
100
AcDbTextStyleTableRecord
  2
textstyle2
 70
0
 40
0.0
 41
1.0
 50
0.0
 71
0
 42
8.0
  3

  4

1001
ACAD
1000
GOST type A
1071
16777216
  0
STYLE
  5
5B
100
AcDbSymbolTableRecord
100
AcDbTextStyleTableRecord
  2
textstyle3
 70
0
 40
0.0
 41
1.0
 50
0.0
 71
0
 42
7.0
  3

  4

1001
ACAD
1000
GOST type A
1071
16777216
  0
STYLE
  5
5C
100
AcDbSymbolTableRecord
100
AcDbTextStyleTableRecord
  2
textstyle4
 70
0
 40
0.0
 41
1.0
 50
0.0
 71
0
 42
7.0
  3

  4

1001
ACAD
1000
GOST type A
1071
16777216
  0
STYLE
  5
5D
100
AcDbSymbolTableRecord
100
AcDbTextStyleTableRecord
  2
textstyle5
 70
0
 40
0.0
 41
1.0
 50
0.0
 71
0
 42
8.0
  3

  4

1001
ACAD
1000
GOST type A
1071
16777216
  0
STYLE
  5
5E
100
AcDbSymbolTableRecord
100
AcDbTextStyleTableRecord
  2
textstyle6
 70
0
 40
0.0
 41
1.0
 50
0.0
 71
0
 42
7.0
  3

  4

1001
ACAD
1000
GOST type A
1071
16777216
  0
STYLE
  5
5F
100
AcDbSymbolTableRecord
100
AcDbTextStyleTableRecord
  2
textstyle7
 70
0
 40
0.0
 41
1.0
 50
0.0
 71
0
 42
8.0
  3

  4

1001
ACAD
1000
GOST type A
1071
16777216
  0
STYLE
  5
60
100
AcDbSymbolTableRecord
100
AcDbTextStyleTableRecord
  2
textstyle8
 70
0
 40
0.0
 41
1.0
 50
0.0
 71
0
 42
8.0
  3

  4

1001
ACAD
1000
GOST type A
1071
16777216
  0
STYLE
  5
61
100
AcDbSymbolTableRecord
100
AcDbTextStyleTableRecord
  2
textstyle9
 70
0
 40
0.0
 41
1.0
 50
0.0
 71
0
 42
8.0
  3

  4

1001
ACAD
1000
GOST type A
1071
16777216
  0
STYLE
  5
62
100
AcDbSymbolTableRecord
100
AcDbTextStyleTableRecord
  2
textstyle10
 70
0
 40
0.0
 41
1.0
 50
0.0
 71
0
 42
25.0
  3

  4

1001
ACAD
1000
GOST type A
1071
16777216
  0
STYLE
  5
63
100
AcDbSymbolTableRecord
100
AcDbTextStyleTableRecord
  2
textstyle11
 70
0
 40
0.0
 41
1.0
 50
0.0
 71
0
 42
35.0
  3

  4

1001
ACAD
1000
GOST type A
1071
16777216
  0
STYLE
  5
64
100
AcDbSymbolTableRecord
100
AcDbTextStyleTableRecord
  2
textstyle12
 70
0
 40
0.0
 41
1.0
 50
0.0
 71
0
 42
35.0
  3

  4

1001
ACAD
1000
GOST type A
1071
16777216
  0
STYLE
  5
65
100
AcDbSymbolTableRecord
100
AcDbTextStyleTableRecord
  2
textstyle13
 70
0
 40
0.0
 41
1.0
 50
0.0
 71
0
 42
35.0
  3

  4

1001
ACAD
1000
GOST type A
1071
16777216
  0
STYLE
  5
66
100
AcDbSymbolTableRecord
100
AcDbTextStyleTableRecord
  2
textstyle14
 70
0
 40
0.0
 41
1.0
 50
0.0
 71
0
 42
45.0
  3

  4

1001
ACAD
1000
GOST type A
1071
16777216
  0
STYLE
  5
67
100
AcDbSymbolTableRecord
100
AcDbTextStyleTableRecord
  2
textstyle15
 70
0
 40
0.0
 41
1.0
 50
0.0
 71
0
 42
45.0
  3

  4

1001
ACAD
1000
GOST type A
1071
16777216
  0
STYLE
  5
68
100
AcDbSymbolTableRecord
100
AcDbTextStyleTableRecord
  2
textstyle16
 70
0
 40
0.0
 41
1.0
 50
0.0
 71
0
 42
45.0
  3

  4

1001
ACAD
1000
GOST type A
1071
16777216
  0
STYLE
  5
69
100
AcDbSymbolTableRecord
100
AcDbTextStyleTableRecord
  2
textstyle17
 70
0
 40
0.0
 41
1.0
 50
0.0
 71
0
 42
7.0
  3

  4

1001
ACAD
1000
GOST type A
1071
16777216
  0
STYLE
  5
6A
100
AcDbSymbolTableRecord
100
AcDbTextStyleTableRecord
  2
textstyle18
 70
0
 40
0.0
 41
1.0
 50
0.0
 71
0
 42
8.0
  3

  4

1001
ACAD
1000
GOST type A
1071
16777216
  0
STYLE
  5
6B
100
AcDbSymbolTableRecord
100
AcDbTextStyleTableRecord
  2
textstyle19
 70
0
 40
0.0
 41
1.0
 50
0.0
 71
0
 42
8.0
  3

  4

1001
ACAD
1000
GOST type A
1071
16777216
  0
STYLE
  5
6C
100
AcDbSymbolTableRecord
100
AcDbTextStyleTableRecord
  2
textstyle20
 70
0
 40
0.0
 41
1.0
 50
0.0
 71
0
 42
7.0
  3

  4

1001
ACAD
1000
GOST type A
1071
16777216
  0
STYLE
  5
6D
100
AcDbSymbolTableRecord
100
AcDbTextStyleTableRecord
  2
textstyle21
 70
0
 40
0.0
 41
1.0
 50
0.0
 71
0
 42
8.0
  3

  4

1001
ACAD
1000
GOST type A
1071
16777216
  0
STYLE
  5
6E
100
AcDbSymbolTableRecord
100
AcDbTextStyleTableRecord
  2
textstyle22
 70
0
 40
0.0
 41
1.0
 50
0.0
 71
0
 42
35.0
  3

  4

1001
ACAD
1000
GOST type A
1071
16777216
  0
STYLE
  5
6F
100
AcDbSymbolTableRecord
100
AcDbTextStyleTableRecord
  2
textstyle23
 70
0
 40
0.0
 41
1.0
 50
0.0
 71
0
 42
35.0
  3

  4

1001
ACAD
1000
GOST type A
1071
16777216
  0
STYLE
  5
70
100
AcDbSymbolTableRecord
100
AcDbTextStyleTableRecord
  2
textstyle24
 70
0
 40
0.0
 41
1.0
 50
0.0
 71
0
 42
45.0
  3

  4

1001
ACAD
1000
GOST type A
1071
16777216
  0
STYLE
  5
71
100
AcDbSymbolTableRecord
100
AcDbTextStyleTableRecord
  2
textstyle25
 70
0
 40
0.0
 41
1.0
 50
0.0
 71
0
 42
35.0
  3

  4

1001
ACAD
1000
GOST type A
1071
16777216
  0
STYLE
  5
72
100
AcDbSymbolTableRecord
100
AcDbTextStyleTableRecord
  2
textstyle26
 70
0
 40
0.0
 41
1.0
 50
0.0
 71
0
 42
45.0
  3

  4

1001
ACAD
1000
GOST type A
1071
16777216
  0
STYLE
  5
73
100
AcDbSymbolTableRecord
100
AcDbTextStyleTableRecord
  2
textstyle27
 70
0
 40
0.0
 41
1.0
 50
0.0
 71
0
 42
45.0
  3

  4

1001
ACAD
1000
GOST type A
1071
16777216
  0
STYLE
  5
74
100
AcDbSymbolTableRecord
100
AcDbTextStyleTableRecord
  2
textstyle28
 70
0
 40
0.0
 41
1.0
 50
0.0
 71
0
 42
35.0
  3

  4

1001
ACAD
1000
GOST type A
1071
16777216
  0
STYLE
  5
75
100
AcDbSymbolTableRecord
100
AcDbTextStyleTableRecord
  2
textstyle29
 70
0
 40
0.0
 41
1.0
 50
0.0
 71
0
 42
35.0
  3

  4

1001
ACAD
1000
GOST type A
1071
16777216
  0
STYLE
  5
76
100
AcDbSymbolTableRecord
100
AcDbTextStyleTableRecord
  2
textstyle30
 70
0
 40
0.0
 41
1.0
 50
0.0
 71
0
 42
35.0
  3

  4

1001
ACAD
1000
GOST type A
1071
16777216
  0
ENDTAB
  0
TABLE
  2
VIEW
  5
6
100
AcDbSymbolTable
 70
0
  0
ENDTAB
  0
TABLE
  2
UCS
  5
7
100
AcDbSymbolTable
 70
0
  0
ENDTAB
  0
TABLE
  2
APPID
  5
9
100
AcDbSymbolTable
 70
1
  0
APPID
  5
12
100
AcDbSymbolTableRecord
100
AcDbRegAppTableRecord
  2
ACAD
 70
0
  0
APPID
  5
77
100
AcDbSymbolTableRecord
100
AcDbRegAppTableRecord
  2
QCAD
 70
0
  0
ENDTAB
  0
TABLE
  2
DIMSTYLE
  5
A
100
AcDbSymbolTable
 70
1
100
AcDbDimStyleTable
 71
0
  0
DIMSTYLE
105
27
100
AcDbSymbolTableRecord
100
AcDbDimStyleTableRecord
  2
Standard
 41
2.5
 42
0.625
 43
3.75
 44
1.25
 70
0
 73
0
 74
0
 77
1
 78
8
140
2.5
141
2.5
143
0.03937007874016
147
0.625
171
3
172
1
271
2
272
2
274
3
278
44
283
0
284
8
340
57
  0
ENDTAB
  0
TABLE
  2
BLOCK_RECORD
  5
1
100
AcDbSymbolTable
 70
1
  0
BLOCK_RECORD
  5
1F
100
AcDbSymbolTableRecord
100
AcDbBlockTableRecord
  2
*Model_Space
340
22
  0
BLOCK_RECORD
  5
1B
100
AcDbSymbolTableRecord
100
AcDbBlockTableRecord
  2
*Paper_Space
340
1E
  0
BLOCK_RECORD
  5
23
100
AcDbSymbolTableRecord
100
AcDbBlockTableRecord
  2
*Paper_Space0
340
26
  0
BLOCK_RECORD
  5
78
100
AcDbSymbolTableRecord
100
AcDbBlockTableRecord
  2
Monitor
340
0
  0
BLOCK_RECORD
  5
79
100
AcDbSymbolTableRecord
100
AcDbBlockTableRecord
  2
Chair
340
0
  0
BLOCK_RECORD
  5
7A
100
AcDbSymbolTableRecord
100
AcDbBlockTableRecord
  2
Keyboard
340
0
  0
BLOCK_RECORD
  5
7B
100
AcDbSymbolTableRecord
100
AcDbBlockTableRecord
  2
PC
340
0
  0
BLOCK_RECORD
  5
7C
100
AcDbSymbolTableRecord
100
AcDbBlockTableRecord
  2
block 1
340
0
  0
ENDTAB
  0
ENDSEC
  0
SECTION
  2
BLOCKS
  0
BLOCK
  5
20
100
AcDbEntity
  8
0
100
AcDbBlockBegin
  2
*Model_Space
 70
0
 10
0.0
 20
0.0
 30
0.0
  3
*Model_Space
  1

  0
ENDBLK
  5
21
100
AcDbEntity
  8
0
100
AcDbBlockEnd
  0
BLOCK
  5
1C
100
AcDbEntity
 67
1
  8
0
100
AcDbBlockBegin
  2
*Paper_Space
 70
0
 10
0.0
 20
0.0
 30
0.0
  3
*Paper_Space
  1

  0
ENDBLK
  5
1D
100
AcDbEntity
 67
1
  8
0
100
AcDbBlockEnd
  0
BLOCK
  5
24
100
AcDbEntity
  8
0
100
AcDbBlockBegin
  2
*Paper_Space0
 70
0
 10
0.0
 20
0.0
 30
0.0
  3
*Paper_Space0
  1

  0
ENDBLK
  5
25
100
AcDbEntity
  8
0
100
AcDbBlockEnd
  0
BLOCK
  5
7D
100
AcDbEntity
  8
0
100
AcDbBlockBegin
  2
Monitor
 70
0
 10
0.0
 20
0.0
 30
0.0
  3
Monitor
  1

  0
LINE
  5
7E
100
AcDbEntity
  8
0
 62
256
370
-1
 48
1.0
  6
BYLAYER
100
AcDbLine
 10
0.0
 20
0.0
 30
0.0
 11
230.0
 21
-200.0
 31
0.0
  0
LINE
  5
7F
100
AcDbEntity
  8
0
 62
256
370
-1
 48
1.0
  6
BYLAYER
100
AcDbLine
 10
0.0
 20
0.0
 30
0.0
 11
-240.0
 21
-200.0
 31
0.0
  0
LINE
  5
80
100
AcDbEntity
  8
0
 62
256
370
-1
 48
1.0
  6
BYLAYER
100
AcDbLine
 10
-230.0
 20
-200.0
 30
0.0
 11
0.0
 21
-30.0
 31
0.0
  0
LINE
  5
81
100
AcDbEntity
  8
0
 62
256
370
-1
 48
1.0
  6
BYLAYER
100
AcDbLine
 10
0.0
 20
-30.0
 30
0.0
 11
220.0
 21
-200.0
 31
0.0
  0
LINE
  5
82
100
AcDbEntity
  8
0
 62
256
370
-1
 48
1.0
  6
BYLAYER
100
AcDbLine
 10
-305.0
 20
-193.0
 30
0.0
 11
305.0
 21
-193.0
 31
0.0
  0
LINE
  5
83
100
AcDbEntity
  8
0
 62
256
370
-1
 48
1.0
  6
BYLAYER
100
AcDbLine
 10
305.0
 20
-193.0
 30
0.0
 11
305.0
 21
-170.0
 31
0.0
  0
LINE
  5
84
100
AcDbEntity
  8
0
 62
256
370
-1
 48
1.0
  6
BYLAYER
100
AcDbLine
 10
305.0
 20
-170.0
 30
0.0
 11
-305.0
 21
-170.0
 31
0.0
  0
LINE
  5
85
100
AcDbEntity
  8
0
 62
256
370
-1
 48
1.0
  6
BYLAYER
100
AcDbLine
 10
-305.0
 20
-170.0
 30
0.0
 11
-305.0
 21
-193.0
 31
0.0
  0
LINE
  5
86
100
AcDbEntity
  8
0
 62
256
370
-1
 48
1.0
  6
BYLAYER
100
AcDbLine
 10
-30.0
 20
-170.0
 30
0.0
 11
30.0
 21
-170.0
 31
0.0
  0
LINE
  5
87
100
AcDbEntity
  8
0
 62
256
370
-1
 48
1.0
  6
BYLAYER
100
AcDbLine
 10
30.0
 20
-170.0
 30
0.0
 11
30.0
 21
-40.0
 31
0.0
  0
LINE
  5
88
100
AcDbEntity
  8
0
 62
256
370
-1
 48
1.0
  6
BYLAYER
100
AcDbLine
 10
30.0
 20
-40.0
 30
0.0
 11
-30.0
 21
-40.0
 31
0.0
  0
LINE
  5
89
100
AcDbEntity
  8
0
 62
256
370
-1
 48
1.0
  6
BYLAYER
100
AcDbLine
 10
-30.0
 20
-40.0
 30
0.0
 11
-30.0
 21
-170.0
 31
0.0
  0
ENDBLK
  5
8A
100
AcDbEntity
  8
0
100
AcDbBlockEnd
  0
BLOCK
  5
8B
100
AcDbEntity
  8
0
100
AcDbBlockBegin
  2
Chair
 70
0
 10
0.0
 20
0.0
 30
0.0
  3
Chair
  1

  0
LINE
  5
8C
100
AcDbEntity
  8
0
 62
256
370
-1
 48
1.0
  6
BYLAYER
100
AcDbLine
 10
-300.0
 20
412.5
 30
0.0
 11
-200.0
 21
412.5
 31
0.0
  0
LINE
  5
8D
100
AcDbEntity
  8
0
 62
256
370
-1
 48
1.0
  6
BYLAYER
100
AcDbLine
 10
-300.0
 20
412.5
 30
0.0
 11
-300.0
 21
132.5
 31
0.0
  0
LINE
  5
8E
100
AcDbEntity
  8
0
 62
256
370
-1
 48
1.0
  6
BYLAYER
100
AcDbLine
 10
-300.0
 20
132.5
 30
0.0
 11
-200.0
 21
132.5
 31
0.0
  0
LINE
  5
8F
100
AcDbEntity
  8
0
 62
256
370
-1
 48
1.0
  6
BYLAYER
100
AcDbLine
 10
-200.0
 20
132.5
 30
0.0
 11
-200.0
 21
412.5
 31
0.0
  0
LINE
  5
90
100
AcDbEntity
  8
0
 62
256
370
-1
 48
1.0
  6
BYLAYER
100
AcDbLine
 10
200.0
 20
412.5
 30
0.0
 11
300.0
 21
412.5
 31
0.0
  0
LINE
  5
91
100
AcDbEntity
  8
0
 62
256
370
-1
 48
1.0
  6
BYLAYER
100
AcDbLine
 10
200.0
 20
412.5
 30
0.0
 11
200.0
 21
132.5
 31
0.0
  0
LINE
  5
92
100
AcDbEntity
  8
0
 62
256
370
-1
 48
1.0
  6
BYLAYER
100
AcDbLine
 10
200.0
 20
132.5
 30
0.0
 11
300.0
 21
132.5
 31
0.0
  0
LINE
  5
93
100
AcDbEntity
  8
0
 62
256
370
-1
 48
1.0
  6
BYLAYER
100
AcDbLine
 10
300.0
 20
132.5
 30
0.0
 11
300.0
 21
412.5
 31
0.0
  0
LINE
  5
94
100
AcDbEntity
  8
0
 62
256
370
-1
 48
1.0
  6
BYLAYER
100
AcDbLine
 10
-200.0
 20
550.0
 30
0.0
 11
200.0
 21
550.0
 31
0.0
  0
LINE
  5
95
100
AcDbEntity
  8
0
 62
256
370
-1
 48
1.0
  6
BYLAYER
100
AcDbLine
 10
-175.0
 20
0.0
 30
0.0
 11
175.0
 21
0.0
 31
0.0
  0
LINE
  5
96
100
AcDbEntity
  8
0
 62
256
370
-1
 48
1.0
  6
BYLAYER
100
AcDbLine
 10
200.0
 20
550.0
 30
0.0
 11
175.0
 21
0.0
 31
0.0
  0
LINE
  5
97
100
AcDbEntity
  8
0
 62
256
370
-1
 48
1.0
  6
BYLAYER
100
AcDbLine
 10
-175.0
 20
0.0
 30
0.0
 11
-200.0
 21
550.0
 31
0.0
  0
LINE
  5
98
100
AcDbEntity
  8
0
 62
256
370
-1
 48
1.0
  6
BYLAYER
100
AcDbLine
 10
-300.0
 20
300.0
 30
0.0
 11
-300.0
 21
245.0
 31
0.0
  0
LINE
  5
99
100
AcDbEntity
  8
0
 62
256
370
-1
 48
1.0
  6
BYLAYER
100
AcDbLine
 10
-300.0
 20
300.0
 30
0.0
 11
300.0
 21
300.0
 31
0.0
  0
LINE
  5
9A
100
AcDbEntity
  8
0
 62
256
370
-1
 48
1.0
  6
BYLAYER
100
AcDbLine
 10
300.0
 20
300.0
 30
0.0
 11
300.0
 21
245.0
 31
0.0
  0
LINE
  5
9B
100
AcDbEntity
  8
0
 62
256
370
-1
 48
1.0
  6
BYLAYER
100
AcDbLine
 10
300.0
 20
245.0
 30
0.0
 11
-300.0
 21
245.0
 31
0.0
  0
LINE
  5
9C
100
AcDbEntity
  8
0
 62
256
370
-1
 48
1.0
  6
BYLAYER
100
AcDbLine
 10
0.0
 20
550.0
 30
0.0
 11
0.0
 21
0.0
 31
0.0
  0
LINE
  5
9D
100
AcDbEntity
  8
0
 62
1
420
16711680
370
-1
 48
1.0
  6
BYLAYER
100
AcDbLine
 10
-280.0
 20
80.0
 30
0.0
 11
280.0
 21
80.0
 31
0.0
  0
LINE
  5
9E
100
AcDbEntity
  8
0
 62
1
420
16711680
370
-1
 48
1.0
  6
BYLAYER
100
AcDbLine
 10
280.0
 20
80.0
 30
0.0
 11
280.0
 21
0.0
 31
0.0
  0
LINE
  5
9F
100
AcDbEntity
  8
0
 62
1
420
16711680
370
-1
 48
1.0
  6
BYLAYER
100
AcDbLine
 10
280.0
 20
0.0
 30
0.0
 11
-280.0
 21
0.0
 31
0.0
  0
LINE
  5
A0
100
AcDbEntity
  8
0
 62
1
420
16711680
370
-1
 48
1.0
  6
BYLAYER
100
AcDbLine
 10
-280.0
 20
0.0
 30
0.0
 11
-280.0
 21
80.0
 31
0.0
  0
CIRCLE
  5
A1
100
AcDbEntity
  8
0
 62
256
370
-1
 48
1.0
  6
BYLAYER
100
AcDbCircle
 10
0.0
 20
200.0
 30
0.0
 40
140.0
  0
LINE
  5
A2
100
AcDbEntity
  8
0
 62
256
370
-1
 48
1.0
  6
BYLAYER
100
AcDbLine
 10
240.0
 20
170.0
 30
0.0
 11
-260.0
 21
170.0
 31
0.0
  0
LINE
  5
A3
100
AcDbEntity
  8
0
 62
256
370
-1
 48
1.0
  6
BYLAYER
100
AcDbLine
 10
-260.0
 20
170.0
 30
0.0
 11
-260.0
 21
100.0
 31
0.0
  0
LINE
  5
A4
100
AcDbEntity
  8
0
 62
256
370
-1
 48
1.0
  6
BYLAYER
100
AcDbLine
 10
-260.0
 20
100.0
 30
0.0
 11
240.0
 21
100.0
 31
0.0
  0
LINE
  5
A5
100
AcDbEntity
  8
0
 62
256
370
-1
 48
1.0
  6
BYLAYER
100
AcDbLine
 10
240.0
 20
100.0
 30
0.0
 11
240.0
 21
170.0
 31
0.0
  0
ENDBLK
  5
A6
100
AcDbEntity
  8
0
100
AcDbBlockEnd
  0
BLOCK
  5
A7
100
AcDbEntity
  8
0
100
AcDbBlockBegin
  2
Keyboard
 70
0
 10
0.0
 20
0.0
 30
0.0
  3
Keyboard
  1

  0
LINE
  5
A8
100
AcDbEntity
  8
0
 62
256
370
-1
 48
1.0
  6
BYLAYER
100
AcDbLine
 10
-225.0
 20
220.0
 30
0.0
 11
225.0
 21
220.0
 31
0.0
  0
LINE
  5
A9
100
AcDbEntity
  8
0
 62
256
370
-1
 48
1.0
  6
BYLAYER
100
AcDbLine
 10
225.0
 20
220.0
 30
0.0
 11
225.0
 21
0.0
 31
0.0
  0
LINE
  5
AA
100
AcDbEntity
  8
0
 62
256
370
-1
 48
1.0
  6
BYLAYER
100
AcDbLine
 10
225.0
 20
0.0
 30
0.0
 11
-225.0
 21
0.0
 31
0.0
  0
LINE
  5
AB
100
AcDbEntity
  8
0
 62
256
370
-1
 48
1.0
  6
BYLAYER
100
AcDbLine
 10
-225.0
 20
0.0
 30
0.0
 11
-225.0
 21
220.0
 31
0.0
  0
LINE
  5
AC
100
AcDbEntity
  8
0
 62
256
370
-1
 48
1.0
  6
BYLAYER
100
AcDbLine
 10
-205.0
 20
200.0
 30
0.0
 11
-185.0
 21
200.0
 31
0.0
  0
LINE
  5
AD
100
AcDbEntity
  8
0
 62
256
370
-1
 48
1.0
  6
BYLAYER
100
AcDbLine
 10
-175.0
 20
200.0
 30
0.0
 11
-155.0
 21
200.0
 31
0.0
  0
LINE
  5
AE
100
AcDbEntity
  8
0
 62
256
370
-1
 48
1.0
  6
BYLAYER
100
AcDbLine
 10
-145.0
 20
200.0
 30
0.0
 11
-125.0
 21
200.0
 31
0.0
  0
LINE
  5
AF
100
AcDbEntity
  8
0
 62
256
370
-1
 48
1.0
  6
BYLAYER
100
AcDbLine
 10
-115.0
 20
200.0
 30
0.0
 11
-95.0
 21
200.0
 31
0.0
  0
LINE
  5
B0
100
AcDbEntity
  8
0
 62
256
370
-1
 48
1.0
  6
BYLAYER
100
AcDbLine
 10
-85.0
 20
200.0
 30
0.0
 11
-65.0
 21
200.0
 31
0.0
  0
LINE
  5
B1
100
AcDbEntity
  8
0
 62
256
370
-1
 48
1.0
  6
BYLAYER
100
AcDbLine
 10
-55.0
 20
200.0
 30
0.0
 11
-35.0
 21
200.0
 31
0.0
  0
LINE
  5
B2
100
AcDbEntity
  8
0
 62
256
370
-1
 48
1.0
  6
BYLAYER
100
AcDbLine
 10
-25.0
 20
200.0
 30
0.0
 11
-5.0
 21
200.0
 31
0.0
  0
LINE
  5
B3
100
AcDbEntity
  8
0
 62
256
370
-1
 48
1.0
  6
BYLAYER
100
AcDbLine
 10
5.0
 20
200.0
 30
0.0
 11
25.0
 21
200.0
 31
0.0
  0
LINE
  5
B4
100
AcDbEntity
  8
0
 62
256
370
-1
 48
1.0
  6
BYLAYER
100
AcDbLine
 10
35.0
 20
200.0
 30
0.0
 11
55.0
 21
200.0
 31
0.0
  0
LINE
  5
B5
100
AcDbEntity
  8
0
 62
256
370
-1
 48
1.0
  6
BYLAYER
100
AcDbLine
 10
65.0
 20
200.0
 30
0.0
 11
85.0
 21
200.0
 31
0.0
  0
LINE
  5
B6
100
AcDbEntity
  8
0
 62
256
370
-1
 48
1.0
  6
BYLAYER
100
AcDbLine
 10
95.0
 20
200.0
 30
0.0
 11
115.0
 21
200.0
 31
0.0
  0
LINE
  5
B7
100
AcDbEntity
  8
0
 62
256
370
-1
 48
1.0
  6
BYLAYER
100
AcDbLine
 10
125.0
 20
200.0
 30
0.0
 11
145.0
 21
200.0
 31
0.0
  0
LINE
  5
B8
100
AcDbEntity
  8
0
 62
256
370
-1
 48
1.0
  6
BYLAYER
100
AcDbLine
 10
155.0
 20
200.0
 30
0.0
 11
175.0
 21
200.0
 31
0.0
  0
LINE
  5
B9
100
AcDbEntity
  8
0
 62
256
370
-1
 48
1.0
  6
BYLAYER
100
AcDbLine
 10
185.0
 20
200.0
 30
0.0
 11
205.0
 21
200.0
 31
0.0
  0
LINE
  5
BA
100
AcDbEntity
  8
0
 62
256
370
-1
 48
1.0
  6
BYLAYER
100
AcDbLine
 10
-205.0
 20
160.0
 30
0.0
 11
-185.0
 21
160.0
 31
0.0
  0
LINE
  5
BB
100
AcDbEntity
  8
0
 62
256
370
-1
 48
1.0
  6
BYLAYER
100
AcDbLine
 10
-175.0
 20
160.0
 30
0.0
 11
-155.0
 21
160.0
 31
0.0
  0
LINE
  5
BC
100
AcDbEntity
  8
0
 62
256
370
-1
 48
1.0
  6
BYLAYER
100
AcDbLine
 10
-145.0
 20
160.0
 30
0.0
 11
-125.0
 21
160.0
 31
0.0
  0
LINE
  5
BD
100
AcDbEntity
  8
0
 62
256
370
-1
 48
1.0
  6
BYLAYER
100
AcDbLine
 10
-115.0
 20
160.0
 30
0.0
 11
-95.0
 21
160.0
 31
0.0
  0
LINE
  5
BE
100
AcDbEntity
  8
0
 62
256
370
-1
 48
1.0
  6
BYLAYER
100
AcDbLine
 10
-85.0
 20
160.0
 30
0.0
 11
-65.0
 21
160.0
 31
0.0
  0
LINE
  5
BF
100
AcDbEntity
  8
0
 62
256
370
-1
 48
1.0
  6
BYLAYER
100
AcDbLine
 10
-55.0
 20
160.0
 30
0.0
 11
-35.0
 21
160.0
 31
0.0
  0
LINE
  5
C0
100
AcDbEntity
  8
0
 62
256
370
-1
 48
1.0
  6
BYLAYER
100
AcDbLine
 10
-25.0
 20
160.0
 30
0.0
 11
-5.0
 21
160.0
 31
0.0
  0
LINE
  5
C1
100
AcDbEntity
  8
0
 62
256
370
-1
 48
1.0
  6
BYLAYER
100
AcDbLine
 10
5.0
 20
160.0
 30
0.0
 11
25.0
 21
160.0
 31
0.0
  0
LINE
  5
C2
100
AcDbEntity
  8
0
 62
256
370
-1
 48
1.0
  6
BYLAYER
100
AcDbLine
 10
35.0
 20
160.0
 30
0.0
 11
55.0
 21
160.0
 31
0.0
  0
LINE
  5
C3
100
AcDbEntity
  8
0
 62
256
370
-1
 48
1.0
  6
BYLAYER
100
AcDbLine
 10
65.0
 20
160.0
 30
0.0
 11
85.0
 21
160.0
 31
0.0
  0
LINE
  5
C4
100
AcDbEntity
  8
0
 62
256
370
-1
 48
1.0
  6
BYLAYER
100
AcDbLine
 10
95.0
 20
160.0
 30
0.0
 11
115.0
 21
160.0
 31
0.0
  0
LINE
  5
C5
100
AcDbEntity
  8
0
 62
256
370
-1
 48
1.0
  6
BYLAYER
100
AcDbLine
 10
125.0
 20
160.0
 30
0.0
 11
145.0
 21
160.0
 31
0.0
  0
LINE
  5
C6
100
AcDbEntity
  8
0
 62
256
370
-1
 48
1.0
  6
BYLAYER
100
AcDbLine
 10
155.0
 20
160.0
 30
0.0
 11
175.0
 21
160.0
 31
0.0
  0
LINE
  5
C7
100
AcDbEntity
  8
0
 62
256
370
-1
 48
1.0
  6
BYLAYER
100
AcDbLine
 10
185.0
 20
160.0
 30
0.0
 11
205.0
 21
160.0
 31
0.0
  0
LINE
  5
C8
100
AcDbEntity
  8
0
 62
256
370
-1
 48
1.0
  6
BYLAYER
100
AcDbLine
 10
-205.0
 20
120.0
 30
0.0
 11
-185.0
 21
120.0
 31
0.0
  0
LINE
  5
C9
100
AcDbEntity
  8
0
 62
256
370
-1
 48
1.0
  6
BYLAYER
100
AcDbLine
 10
-175.0
 20
120.0
 30
0.0
 11
-155.0
 21
120.0
 31
0.0
  0
LINE
  5
CA
100
AcDbEntity
  8
0
 62
256
370
-1
 48
1.0
  6
BYLAYER
100
AcDbLine
 10
-145.0
 20
120.0
 30
0.0
 11
-125.0
 21
120.0
 31
0.0
  0
LINE
  5
CB
100
AcDbEntity
  8
0
 62
256
370
-1
 48
1.0
  6
BYLAYER
100
AcDbLine
 10
-115.0
 20
120.0
 30
0.0
 11
-95.0
 21
120.0
 31
0.0
  0
LINE
  5
CC
100
AcDbEntity
  8
0
 62
256
370
-1
 48
1.0
  6
BYLAYER
100
AcDbLine
 10
-85.0
 20
120.0
 30
0.0
 11
-65.0
 21
120.0
 31
0.0
  0
LINE
  5
CD
100
AcDbEntity
  8
0
 62
256
370
-1
 48
1.0
  6
BYLAYER
100
AcDbLine
 10
-55.0
 20
120.0
 30
0.0
 11
-35.0
 21
120.0
 31
0.0
  0
LINE
  5
CE
100
AcDbEntity
  8
0
 62
256
370
-1
 48
1.0
  6
BYLAYER
100
AcDbLine
 10
-25.0
 20
120.0
 30
0.0
 11
-5.0
 21
120.0
 31
0.0
  0
LINE
  5
CF
100
AcDbEntity
  8
0
 62
256
370
-1
 48
1.0
  6
BYLAYER
100
AcDbLine
 10
5.0
 20
120.0
 30
0.0
 11
25.0
 21
120.0
 31
0.0
  0
LINE
  5
D0
100
AcDbEntity
  8
0
 62
256
370
-1
 48
1.0
  6
BYLAYER
100
AcDbLine
 10
35.0
 20
120.0
 30
0.0
 11
55.0
 21
120.0
 31
0.0
  0
LINE
  5
D1
100
AcDbEntity
  8
0
 62
256
370
-1
 48
1.0
  6
BYLAYER
100
AcDbLine
 10
65.0
 20
120.0
 30
0.0
 11
85.0
 21
120.0
 31
0.0
  0
LINE
  5
D2
100
AcDbEntity
  8
0
 62
256
370
-1
 48
1.0
  6
BYLAYER
100
AcDbLine
 10
95.0
 20
120.0
 30
0.0
 11
115.0
 21
120.0
 31
0.0
  0
LINE
  5
D3
100
AcDbEntity
  8
0
 62
256
370
-1
 48
1.0
  6
BYLAYER
100
AcDbLine
 10
125.0
 20
120.0
 30
0.0
 11
145.0
 21
120.0
 31
0.0
  0
LINE
  5
D4
100
AcDbEntity
  8
0
 62
256
370
-1
 48
1.0
  6
BYLAYER
100
AcDbLine
 10
155.0
 20
120.0
 30
0.0
 11
175.0
 21
120.0
 31
0.0
  0
LINE
  5
D5
100
AcDbEntity
  8
0
 62
256
370
-1
 48
1.0
  6
BYLAYER
100
AcDbLine
 10
185.0
 20
120.0
 30
0.0
 11
205.0
 21
120.0
 31
0.0
  0
LINE
  5
D6
100
AcDbEntity
  8
0
 62
256
370
-1
 48
1.0
  6
BYLAYER
100
AcDbLine
 10
-205.0
 20
80.0
 30
0.0
 11
-185.0
 21
80.0
 31
0.0
  0
LINE
  5
D7
100
AcDbEntity
  8
0
 62
256
370
-1
 48
1.0
  6
BYLAYER
100
AcDbLine
 10
-175.0
 20
80.0
 30
0.0
 11
-155.0
 21
80.0
 31
0.0
  0
LINE
  5
D8
100
AcDbEntity
  8
0
 62
256
370
-1
 48
1.0
  6
BYLAYER
100
AcDbLine
 10
-145.0
 20
80.0
 30
0.0
 11
-125.0
 21
80.0
 31
0.0
  0
LINE
  5
D9
100
AcDbEntity
  8
0
 62
256
370
-1
 48
1.0
  6
BYLAYER
100
AcDbLine
 10
-115.0
 20
80.0
 30
0.0
 11
-95.0
 21
80.0
 31
0.0
  0
LINE
  5
DA
100
AcDbEntity
  8
0
 62
256
370
-1
 48
1.0
  6
BYLAYER
100
AcDbLine
 10
-85.0
 20
80.0
 30
0.0
 11
-65.0
 21
80.0
 31
0.0
  0
LINE
  5
DB
100
AcDbEntity
  8
0
 62
256
370
-1
 48
1.0
  6
BYLAYER
100
AcDbLine
 10
-55.0
 20
80.0
 30
0.0
 11
-35.0
 21
80.0
 31
0.0
  0
LINE
  5
DC
100
AcDbEntity
  8
0
 62
256
370
-1
 48
1.0
  6
BYLAYER
100
AcDbLine
 10
-25.0
 20
80.0
 30
0.0
 11
-5.0
 21
80.0
 31
0.0
  0
LINE
  5
DD
100
AcDbEntity
  8
0
 62
256
370
-1
 48
1.0
  6
BYLAYER
100
AcDbLine
 10
5.0
 20
80.0
 30
0.0
 11
25.0
 21
80.0
 31
0.0
  0
LINE
  5
DE
100
AcDbEntity
  8
0
 62
256
370
-1
 48
1.0
  6
BYLAYER
100
AcDbLine
 10
35.0
 20
80.0
 30
0.0
 11
55.0
 21
80.0
 31
0.0
  0
LINE
  5
DF
100
AcDbEntity
  8
0
 62
256
370
-1
 48
1.0
  6
BYLAYER
100
AcDbLine
 10
65.0
 20
80.0
 30
0.0
 11
85.0
 21
80.0
 31
0.0
  0
LINE
  5
E0
100
AcDbEntity
  8
0
 62
256
370
-1
 48
1.0
  6
BYLAYER
100
AcDbLine
 10
95.0
 20
80.0
 30
0.0
 11
115.0
 21
80.0
 31
0.0
  0
LINE
  5
E1
100
AcDbEntity
  8
0
 62
256
370
-1
 48
1.0
  6
BYLAYER
100
AcDbLine
 10
125.0
 20
80.0
 30
0.0
 11
145.0
 21
80.0
 31
0.0
  0
LINE
  5
E2
100
AcDbEntity
  8
0
 62
256
370
-1
 48
1.0
  6
BYLAYER
100
AcDbLine
 10
155.0
 20
80.0
 30
0.0
 11
175.0
 21
80.0
 31
0.0
  0
LINE
  5
E3
100
AcDbEntity
  8
0
 62
256
370
-1
 48
1.0
  6
BYLAYER
100
AcDbLine
 10
185.0
 20
80.0
 30
0.0
 11
205.0
 21
80.0
 31
0.0
  0
LINE
  5
E4
100
AcDbEntity
  8
0
 62
256
370
-1
 48
1.0
  6
BYLAYER
100
AcDbLine
 10
-185.0
 20
200.0
 30
0.0
 11
-185.0
 21
180.0
 31
0.0
  0
LINE
  5
E5
100
AcDbEntity
  8
0
 62
256
370
-1
 48
1.0
  6
BYLAYER
100
AcDbLine
 10
-155.0
 20
200.0
 30
0.0
 11
-155.0
 21
180.0
 31
0.0
  0
LINE
  5
E6
100
AcDbEntity
  8
0
 62
256
370
-1
 48
1.0
  6
BYLAYER
100
AcDbLine
 10
-125.0
 20
200.0
 30
0.0
 11
-125.0
 21
180.0
 31
0.0
  0
LINE
  5
E7
100
AcDbEntity
  8
0
 62
256
370
-1
 48
1.0
  6
BYLAYER
100
AcDbLine
 10
-95.0
 20
200.0
 30
0.0
 11
-95.0
 21
180.0
 31
0.0
  0
LINE
  5
E8
100
AcDbEntity
  8
0
 62
256
370
-1
 48
1.0
  6
BYLAYER
100
AcDbLine
 10
-65.0
 20
200.0
 30
0.0
 11
-65.0
 21
180.0
 31
0.0
  0
LINE
  5
E9
100
AcDbEntity
  8
0
 62
256
370
-1
 48
1.0
  6
BYLAYER
100
AcDbLine
 10
-35.0
 20
200.0
 30
0.0
 11
-35.0
 21
180.0
 31
0.0
  0
LINE
  5
EA
100
AcDbEntity
  8
0
 62
256
370
-1
 48
1.0
  6
BYLAYER
100
AcDbLine
 10
-5.0
 20
200.0
 30
0.0
 11
-5.0
 21
180.0
 31
0.0
  0
LINE
  5
EB
100
AcDbEntity
  8
0
 62
256
370
-1
 48
1.0
  6
BYLAYER
100
AcDbLine
 10
25.0
 20
200.0
 30
0.0
 11
25.0
 21
180.0
 31
0.0
  0
LINE
  5
EC
100
AcDbEntity
  8
0
 62
256
370
-1
 48
1.0
  6
BYLAYER
100
AcDbLine
 10
55.0
 20
200.0
 30
0.0
 11
55.0
 21
180.0
 31
0.0
  0
LINE
  5
ED
100
AcDbEntity
  8
0
 62
256
370
-1
 48
1.0
  6
BYLAYER
100
AcDbLine
 10
85.0
 20
200.0
 30
0.0
 11
85.0
 21
180.0
 31
0.0
  0
LINE
  5
EE
100
AcDbEntity
  8
0
 62
256
370
-1
 48
1.0
  6
BYLAYER
100
AcDbLine
 10
115.0
 20
200.0
 30
0.0
 11
115.0
 21
180.0
 31
0.0
  0
LINE
  5
EF
100
AcDbEntity
  8
0
 62
256
370
-1
 48
1.0
  6
BYLAYER
100
AcDbLine
 10
145.0
 20
200.0
 30
0.0
 11
145.0
 21
180.0
 31
0.0
  0
LINE
  5
F0
100
AcDbEntity
  8
0
 62
256
370
-1
 48
1.0
  6
BYLAYER
100
AcDbLine
 10
175.0
 20
200.0
 30
0.0
 11
175.0
 21
180.0
 31
0.0
  0
LINE
  5
F1
100
AcDbEntity
  8
0
 62
256
370
-1
 48
1.0
  6
BYLAYER
100
AcDbLine
 10
205.0
 20
200.0
 30
0.0
 11
205.0
 21
180.0
 31
0.0
  0
LINE
  5
F2
100
AcDbEntity
  8
0
 62
256
370
-1
 48
1.0
  6
BYLAYER
100
AcDbLine
 10
-185.0
 20
160.0
 30
0.0
 11
-185.0
 21
140.0
 31
0.0
  0
LINE
  5
F3
100
AcDbEntity
  8
0
 62
256
370
-1
 48
1.0
  6
BYLAYER
100
AcDbLine
 10
-155.0
 20
160.0
 30
0.0
 11
-155.0
 21
140.0
 31
0.0
  0
LINE
  5
F4
100
AcDbEntity
  8
0
 62
256
370
-1
 48
1.0
  6
BYLAYER
100
AcDbLine
 10
-125.0
 20
160.0
 30
0.0
 11
-125.0
 21
140.0
 31
0.0
  0
LINE
  5
F5
100
AcDbEntity
  8
0
 62
256
370
-1
 48
1.0
  6
BYLAYER
100
AcDbLine
 10
-95.0
 20
160.0
 30
0.0
 11
-95.0
 21
140.0
 31
0.0
  0
LINE
  5
F6
100
AcDbEntity
  8
0
 62
256
370
-1
 48
1.0
  6
BYLAYER
100
AcDbLine
 10
-65.0
 20
160.0
 30
0.0
 11
-65.0
 21
140.0
 31
0.0
  0
LINE
  5
F7
100
AcDbEntity
  8
0
 62
256
370
-1
 48
1.0
  6
BYLAYER
100
AcDbLine
 10
-35.0
 20
160.0
 30
0.0
 11
-35.0
 21
140.0
 31
0.0
  0
LINE
  5
F8
100
AcDbEntity
  8
0
 62
256
370
-1
 48
1.0
  6
BYLAYER
100
AcDbLine
 10
-5.0
 20
160.0
 30
0.0
 11
-5.0
 21
140.0
 31
0.0
  0
LINE
  5
F9
100
AcDbEntity
  8
0
 62
256
370
-1
 48
1.0
  6
BYLAYER
100
AcDbLine
 10
25.0
 20
160.0
 30
0.0
 11
25.0
 21
140.0
 31
0.0
  0
LINE
  5
FA
100
AcDbEntity
  8
0
 62
256
370
-1
 48
1.0
  6
BYLAYER
100
AcDbLine
 10
55.0
 20
160.0
 30
0.0
 11
55.0
 21
140.0
 31
0.0
  0
LINE
  5
FB
100
AcDbEntity
  8
0
 62
256
370
-1
 48
1.0
  6
BYLAYER
100
AcDbLine
 10
85.0
 20
160.0
 30
0.0
 11
85.0
 21
140.0
 31
0.0
  0
LINE
  5
FC
100
AcDbEntity
  8
0
 62
256
370
-1
 48
1.0
  6
BYLAYER
100
AcDbLine
 10
115.0
 20
160.0
 30
0.0
 11
115.0
 21
140.0
 31
0.0
  0
LINE
  5
FD
100
AcDbEntity
  8
0
 62
256
370
-1
 48
1.0
  6
BYLAYER
100
AcDbLine
 10
145.0
 20
160.0
 30
0.0
 11
145.0
 21
140.0
 31
0.0
  0
LINE
  5
FE
100
AcDbEntity
  8
0
 62
256
370
-1
 48
1.0
  6
BYLAYER
100
AcDbLine
 10
175.0
 20
160.0
 30
0.0
 11
175.0
 21
140.0
 31
0.0
  0
LINE
  5
FF
100
AcDbEntity
  8
0
 62
256
370
-1
 48
1.0
  6
BYLAYER
100
AcDbLine
 10
205.0
 20
160.0
 30
0.0
 11
205.0
 21
140.0
 31
0.0
  0
LINE
  5
100
100
AcDbEntity
  8
0
 62
256
370
-1
 48
1.0
  6
BYLAYER
100
AcDbLine
 10
-185.0
 20
120.0
 30
0.0
 11
-185.0
 21
100.0
 31
0.0
  0
LINE
  5
101
100
AcDbEntity
  8
0
 62
256
370
-1
 48
1.0
  6
BYLAYER
100
AcDbLine
 10
-155.0
 20
120.0
 30
0.0
 11
-155.0
 21
100.0
 31
0.0
  0
LINE
  5
102
100
AcDbEntity
  8
0
 62
256
370
-1
 48
1.0
  6
BYLAYER
100
AcDbLine
 10
-125.0
 20
120.0
 30
0.0
 11
-125.0
 21
100.0
 31
0.0
  0
LINE
  5
103
100
AcDbEntity
  8
0
 62
256
370
-1
 48
1.0
  6
BYLAYER
100
AcDbLine
 10
-95.0
 20
120.0
 30
0.0
 11
-95.0
 21
100.0
 31
0.0
  0
LINE
  5
104
100
AcDbEntity
  8
0
 62
256
370
-1
 48
1.0
  6
BYLAYER
100
AcDbLine
 10
-65.0
 20
120.0
 30
0.0
 11
-65.0
 21
100.0
 31
0.0
  0
LINE
  5
105
100
AcDbEntity
  8
0
 62
256
370
-1
 48
1.0
  6
BYLAYER
100
AcDbLine
 10
-35.0
 20
120.0
 30
0.0
 11
-35.0
 21
100.0
 31
0.0
  0
LINE
  5
106
100
AcDbEntity
  8
0
 62
256
370
-1
 48
1.0
  6
BYLAYER
100
AcDbLine
 10
-5.0
 20
120.0
 30
0.0
 11
-5.0
 21
100.0
 31
0.0
  0
LINE
  5
107
100
AcDbEntity
  8
0
 62
256
370
-1
 48
1.0
  6
BYLAYER
100
AcDbLine
 10
25.0
 20
120.0
 30
0.0
 11
25.0
 21
100.0
 31
0.0
  0
LINE
  5
108
100
AcDbEntity
  8
0
 62
256
370
-1
 48
1.0
  6
BYLAYER
100
AcDbLine
 10
55.0
 20
120.0
 30
0.0
 11
55.0
 21
100.0
 31
0.0
  0
LINE
  5
109
100
AcDbEntity
  8
0
 62
256
370
-1
 48
1.0
  6
BYLAYER
100
AcDbLine
 10
85.0
 20
120.0
 30
0.0
 11
85.0
 21
100.0
 31
0.0
  0
LINE
  5
10A
100
AcDbEntity
  8
0
 62
256
370
-1
 48
1.0
  6
BYLAYER
100
AcDbLine
 10
115.0
 20
120.0
 30
0.0
 11
115.0
 21
100.0
 31
0.0
  0
LINE
  5
10B
100
AcDbEntity
  8
0
 62
256
370
-1
 48
1.0
  6
BYLAYER
100
AcDbLine
 10
145.0
 20
120.0
 30
0.0
 11
145.0
 21
100.0
 31
0.0
  0
LINE
  5
10C
100
AcDbEntity
  8
0
 62
256
370
-1
 48
1.0
  6
BYLAYER
100
AcDbLine
 10
175.0
 20
120.0
 30
0.0
 11
175.0
 21
100.0
 31
0.0
  0
LINE
  5
10D
100
AcDbEntity
  8
0
 62
256
370
-1
 48
1.0
  6
BYLAYER
100
AcDbLine
 10
205.0
 20
120.0
 30
0.0
 11
205.0
 21
100.0
 31
0.0
  0
LINE
  5
10E
100
AcDbEntity
  8
0
 62
256
370
-1
 48
1.0
  6
BYLAYER
100
AcDbLine
 10
-185.0
 20
80.0
 30
0.0
 11
-185.0
 21
60.0
 31
0.0
  0
LINE
  5
10F
100
AcDbEntity
  8
0
 62
256
370
-1
 48
1.0
  6
BYLAYER
100
AcDbLine
 10
-155.0
 20
80.0
 30
0.0
 11
-155.0
 21
60.0
 31
0.0
  0
LINE
  5
110
100
AcDbEntity
  8
0
 62
256
370
-1
 48
1.0
  6
BYLAYER
100
AcDbLine
 10
-125.0
 20
80.0
 30
0.0
 11
-125.0
 21
60.0
 31
0.0
  0
LINE
  5
111
100
AcDbEntity
  8
0
 62
256
370
-1
 48
1.0
  6
BYLAYER
100
AcDbLine
 10
-95.0
 20
80.0
 30
0.0
 11
-95.0
 21
60.0
 31
0.0
  0
LINE
  5
112
100
AcDbEntity
  8
0
 62
256
370
-1
 48
1.0
  6
BYLAYER
100
AcDbLine
 10
-65.0
 20
80.0
 30
0.0
 11
-65.0
 21
60.0
 31
0.0
  0
LINE
  5
113
100
AcDbEntity
  8
0
 62
256
370
-1
 48
1.0
  6
BYLAYER
100
AcDbLine
 10
-35.0
 20
80.0
 30
0.0
 11
-35.0
 21
60.0
 31
0.0
  0
LINE
  5
114
100
AcDbEntity
  8
0
 62
256
370
-1
 48
1.0
  6
BYLAYER
100
AcDbLine
 10
-5.0
 20
80.0
 30
0.0
 11
-5.0
 21
60.0
 31
0.0
  0
LINE
  5
115
100
AcDbEntity
  8
0
 62
256
370
-1
 48
1.0
  6
BYLAYER
100
AcDbLine
 10
25.0
 20
80.0
 30
0.0
 11
25.0
 21
60.0
 31
0.0
  0
LINE
  5
116
100
AcDbEntity
  8
0
 62
256
370
-1
 48
1.0
  6
BYLAYER
100
AcDbLine
 10
55.0
 20
80.0
 30
0.0
 11
55.0
 21
60.0
 31
0.0
  0
LINE
  5
117
100
AcDbEntity
  8
0
 62
256
370
-1
 48
1.0
  6
BYLAYER
100
AcDbLine
 10
85.0
 20
80.0
 30
0.0
 11
85.0
 21
60.0
 31
0.0
  0
LINE
  5
118
100
AcDbEntity
  8
0
 62
256
370
-1
 48
1.0
  6
BYLAYER
100
AcDbLine
 10
115.0
 20
80.0
 30
0.0
 11
115.0
 21
60.0
 31
0.0
  0
LINE
  5
119
100
AcDbEntity
  8
0
 62
256
370
-1
 48
1.0
  6
BYLAYER
100
AcDbLine
 10
145.0
 20
80.0
 30
0.0
 11
145.0
 21
60.0
 31
0.0
  0
LINE
  5
11A
100
AcDbEntity
  8
0
 62
256
370
-1
 48
1.0
  6
BYLAYER
100
AcDbLine
 10
175.0
 20
80.0
 30
0.0
 11
175.0
 21
60.0
 31
0.0
  0
LINE
  5
11B
100
AcDbEntity
  8
0
 62
256
370
-1
 48
1.0
  6
BYLAYER
100
AcDbLine
 10
205.0
 20
80.0
 30
0.0
 11
205.0
 21
60.0
 31
0.0
  0
LINE
  5
11C
100
AcDbEntity
  8
0
 62
256
370
-1
 48
1.0
  6
BYLAYER
100
AcDbLine
 10
-185.0
 20
180.0
 30
0.0
 11
-205.0
 21
180.0
 31
0.0
  0
LINE
  5
11D
100
AcDbEntity
  8
0
 62
256
370
-1
 48
1.0
  6
BYLAYER
100
AcDbLine
 10
-155.0
 20
180.0
 30
0.0
 11
-175.0
 21
180.0
 31
0.0
  0
LINE
  5
11E
100
AcDbEntity
  8
0
 62
256
370
-1
 48
1.0
  6
BYLAYER
100
AcDbLine
 10
-125.0
 20
180.0
 30
0.0
 11
-145.0
 21
180.0
 31
0.0
  0
LINE
  5
11F
100
AcDbEntity
  8
0
 62
256
370
-1
 48
1.0
  6
BYLAYER
100
AcDbLine
 10
-95.0
 20
180.0
 30
0.0
 11
-115.0
 21
180.0
 31
0.0
  0
LINE
  5
120
100
AcDbEntity
  8
0
 62
256
370
-1
 48
1.0
  6
BYLAYER
100
AcDbLine
 10
-65.0
 20
180.0
 30
0.0
 11
-85.0
 21
180.0
 31
0.0
  0
LINE
  5
121
100
AcDbEntity
  8
0
 62
256
370
-1
 48
1.0
  6
BYLAYER
100
AcDbLine
 10
-35.0
 20
180.0
 30
0.0
 11
-55.0
 21
180.0
 31
0.0
  0
LINE
  5
122
100
AcDbEntity
  8
0
 62
256
370
-1
 48
1.0
  6
BYLAYER
100
AcDbLine
 10
-5.0
 20
180.0
 30
0.0
 11
-25.0
 21
180.0
 31
0.0
  0
LINE
  5
123
100
AcDbEntity
  8
0
 62
256
370
-1
 48
1.0
  6
BYLAYER
100
AcDbLine
 10
25.0
 20
180.0
 30
0.0
 11
5.0
 21
180.0
 31
0.0
  0
LINE
  5
124
100
AcDbEntity
  8
0
 62
256
370
-1
 48
1.0
  6
BYLAYER
100
AcDbLine
 10
55.0
 20
180.0
 30
0.0
 11
35.0
 21
180.0
 31
0.0
  0
LINE
  5
125
100
AcDbEntity
  8
0
 62
256
370
-1
 48
1.0
  6
BYLAYER
100
AcDbLine
 10
85.0
 20
180.0
 30
0.0
 11
65.0
 21
180.0
 31
0.0
  0
LINE
  5
126
100
AcDbEntity
  8
0
 62
256
370
-1
 48
1.0
  6
BYLAYER
100
AcDbLine
 10
115.0
 20
180.0
 30
0.0
 11
95.0
 21
180.0
 31
0.0
  0
LINE
  5
127
100
AcDbEntity
  8
0
 62
256
370
-1
 48
1.0
  6
BYLAYER
100
AcDbLine
 10
145.0
 20
180.0
 30
0.0
 11
125.0
 21
180.0
 31
0.0
  0
LINE
  5
128
100
AcDbEntity
  8
0
 62
256
370
-1
 48
1.0
  6
BYLAYER
100
AcDbLine
 10
175.0
 20
180.0
 30
0.0
 11
155.0
 21
180.0
 31
0.0
  0
LINE
  5
129
100
AcDbEntity
  8
0
 62
256
370
-1
 48
1.0
  6
BYLAYER
100
AcDbLine
 10
205.0
 20
180.0
 30
0.0
 11
185.0
 21
180.0
 31
0.0
  0
LINE
  5
12A
100
AcDbEntity
  8
0
 62
256
370
-1
 48
1.0
  6
BYLAYER
100
AcDbLine
 10
-185.0
 20
140.0
 30
0.0
 11
-205.0
 21
140.0
 31
0.0
  0
LINE
  5
12B
100
AcDbEntity
  8
0
 62
256
370
-1
 48
1.0
  6
BYLAYER
100
AcDbLine
 10
-155.0
 20
140.0
 30
0.0
 11
-175.0
 21
140.0
 31
0.0
  0
LINE
  5
12C
100
AcDbEntity
  8
0
 62
256
370
-1
 48
1.0
  6
BYLAYER
100
AcDbLine
 10
-125.0
 20
140.0
 30
0.0
 11
-145.0
 21
140.0
 31
0.0
  0
LINE
  5
12D
100
AcDbEntity
  8
0
 62
256
370
-1
 48
1.0
  6
BYLAYER
100
AcDbLine
 10
-95.0
 20
140.0
 30
0.0
 11
-115.0
 21
140.0
 31
0.0
  0
LINE
  5
12E
100
AcDbEntity
  8
0
 62
256
370
-1
 48
1.0
  6
BYLAYER
100
AcDbLine
 10
-65.0
 20
140.0
 30
0.0
 11
-85.0
 21
140.0
 31
0.0
  0
LINE
  5
12F
100
AcDbEntity
  8
0
 62
256
370
-1
 48
1.0
  6
BYLAYER
100
AcDbLine
 10
-35.0
 20
140.0
 30
0.0
 11
-55.0
 21
140.0
 31
0.0
  0
LINE
  5
130
100
AcDbEntity
  8
0
 62
256
370
-1
 48
1.0
  6
BYLAYER
100
AcDbLine
 10
-5.0
 20
140.0
 30
0.0
 11
-25.0
 21
140.0
 31
0.0
  0
LINE
  5
131
100
AcDbEntity
  8
0
 62
256
370
-1
 48
1.0
  6
BYLAYER
100
AcDbLine
 10
25.0
 20
140.0
 30
0.0
 11
5.0
 21
140.0
 31
0.0
  0
LINE
  5
132
100
AcDbEntity
  8
0
 62
256
370
-1
 48
1.0
  6
BYLAYER
100
AcDbLine
 10
55.0
 20
140.0
 30
0.0
 11
35.0
 21
140.0
 31
0.0
  0
LINE
  5
133
100
AcDbEntity
  8
0
 62
256
370
-1
 48
1.0
  6
BYLAYER
100
AcDbLine
 10
85.0
 20
140.0
 30
0.0
 11
65.0
 21
140.0
 31
0.0
  0
LINE
  5
134
100
AcDbEntity
  8
0
 62
256
370
-1
 48
1.0
  6
BYLAYER
100
AcDbLine
 10
115.0
 20
140.0
 30
0.0
 11
95.0
 21
140.0
 31
0.0
  0
LINE
  5
135
100
AcDbEntity
  8
0
 62
256
370
-1
 48
1.0
  6
BYLAYER
100
AcDbLine
 10
145.0
 20
140.0
 30
0.0
 11
125.0
 21
140.0
 31
0.0
  0
LINE
  5
136
100
AcDbEntity
  8
0
 62
256
370
-1
 48
1.0
  6
BYLAYER
100
AcDbLine
 10
175.0
 20
140.0
 30
0.0
 11
155.0
 21
140.0
 31
0.0
  0
LINE
  5
137
100
AcDbEntity
  8
0
 62
256
370
-1
 48
1.0
  6
BYLAYER
100
AcDbLine
 10
205.0
 20
140.0
 30
0.0
 11
185.0
 21
140.0
 31
0.0
  0
LINE
  5
138
100
AcDbEntity
  8
0
 62
256
370
-1
 48
1.0
  6
BYLAYER
100
AcDbLine
 10
-185.0
 20
100.0
 30
0.0
 11
-205.0
 21
100.0
 31
0.0
  0
LINE
  5
139
100
AcDbEntity
  8
0
 62
256
370
-1
 48
1.0
  6
BYLAYER
100
AcDbLine
 10
-155.0
 20
100.0
 30
0.0
 11
-175.0
 21
100.0
 31
0.0
  0
LINE
  5
13A
100
AcDbEntity
  8
0
 62
256
370
-1
 48
1.0
  6
BYLAYER
100
AcDbLine
 10
-125.0
 20
100.0
 30
0.0
 11
-145.0
 21
100.0
 31
0.0
  0
LINE
  5
13B
100
AcDbEntity
  8
0
 62
256
370
-1
 48
1.0
  6
BYLAYER
100
AcDbLine
 10
-95.0
 20
100.0
 30
0.0
 11
-115.0
 21
100.0
 31
0.0
  0
LINE
  5
13C
100
AcDbEntity
  8
0
 62
256
370
-1
 48
1.0
  6
BYLAYER
100
AcDbLine
 10
-65.0
 20
100.0
 30
0.0
 11
-85.0
 21
100.0
 31
0.0
  0
LINE
  5
13D
100
AcDbEntity
  8
0
 62
256
370
-1
 48
1.0
  6
BYLAYER
100
AcDbLine
 10
-35.0
 20
100.0
 30
0.0
 11
-55.0
 21
100.0
 31
0.0
  0
LINE
  5
13E
100
AcDbEntity
  8
0
 62
256
370
-1
 48
1.0
  6
BYLAYER
100
AcDbLine
 10
-5.0
 20
100.0
 30
0.0
 11
-25.0
 21
100.0
 31
0.0
  0
LINE
  5
13F
100
AcDbEntity
  8
0
 62
256
370
-1
 48
1.0
  6
BYLAYER
100
AcDbLine
 10
25.0
 20
100.0
 30
0.0
 11
5.0
 21
100.0
 31
0.0
  0
LINE
  5
140
100
AcDbEntity
  8
0
 62
256
370
-1
 48
1.0
  6
BYLAYER
100
AcDbLine
 10
55.0
 20
100.0
 30
0.0
 11
35.0
 21
100.0
 31
0.0
  0
LINE
  5
141
100
AcDbEntity
  8
0
 62
256
370
-1
 48
1.0
  6
BYLAYER
100
AcDbLine
 10
85.0
 20
100.0
 30
0.0
 11
65.0
 21
100.0
 31
0.0
  0
LINE
  5
142
100
AcDbEntity
  8
0
 62
256
370
-1
 48
1.0
  6
BYLAYER
100
AcDbLine
 10
115.0
 20
100.0
 30
0.0
 11
95.0
 21
100.0
 31
0.0
  0
LINE
  5
143
100
AcDbEntity
  8
0
 62
256
370
-1
 48
1.0
  6
BYLAYER
100
AcDbLine
 10
145.0
 20
100.0
 30
0.0
 11
125.0
 21
100.0
 31
0.0
  0
LINE
  5
144
100
AcDbEntity
  8
0
 62
256
370
-1
 48
1.0
  6
BYLAYER
100
AcDbLine
 10
175.0
 20
100.0
 30
0.0
 11
155.0
 21
100.0
 31
0.0
  0
LINE
  5
145
100
AcDbEntity
  8
0
 62
256
370
-1
 48
1.0
  6
BYLAYER
100
AcDbLine
 10
205.0
 20
100.0
 30
0.0
 11
185.0
 21
100.0
 31
0.0
  0
LINE
  5
146
100
AcDbEntity
  8
0
 62
256
370
-1
 48
1.0
  6
BYLAYER
100
AcDbLine
 10
-185.0
 20
60.0
 30
0.0
 11
-205.0
 21
60.0
 31
0.0
  0
LINE
  5
147
100
AcDbEntity
  8
0
 62
256
370
-1
 48
1.0
  6
BYLAYER
100
AcDbLine
 10
-155.0
 20
60.0
 30
0.0
 11
-175.0
 21
60.0
 31
0.0
  0
LINE
  5
148
100
AcDbEntity
  8
0
 62
256
370
-1
 48
1.0
  6
BYLAYER
100
AcDbLine
 10
-125.0
 20
60.0
 30
0.0
 11
-145.0
 21
60.0
 31
0.0
  0
LINE
  5
149
100
AcDbEntity
  8
0
 62
256
370
-1
 48
1.0
  6
BYLAYER
100
AcDbLine
 10
-95.0
 20
60.0
 30
0.0
 11
-115.0
 21
60.0
 31
0.0
  0
LINE
  5
14A
100
AcDbEntity
  8
0
 62
256
370
-1
 48
1.0
  6
BYLAYER
100
AcDbLine
 10
-65.0
 20
60.0
 30
0.0
 11
-85.0
 21
60.0
 31
0.0
  0
LINE
  5
14B
100
AcDbEntity
  8
0
 62
256
370
-1
 48
1.0
  6
BYLAYER
100
AcDbLine
 10
-35.0
 20
60.0
 30
0.0
 11
-55.0
 21
60.0
 31
0.0
  0
LINE
  5
14C
100
AcDbEntity
  8
0
 62
256
370
-1
 48
1.0
  6
BYLAYER
100
AcDbLine
 10
-5.0
 20
60.0
 30
0.0
 11
-25.0
 21
60.0
 31
0.0
  0
LINE
  5
14D
100
AcDbEntity
  8
0
 62
256
370
-1
 48
1.0
  6
BYLAYER
100
AcDbLine
 10
25.0
 20
60.0
 30
0.0
 11
5.0
 21
60.0
 31
0.0
  0
LINE
  5
14E
100
AcDbEntity
  8
0
 62
256
370
-1
 48
1.0
  6
BYLAYER
100
AcDbLine
 10
55.0
 20
60.0
 30
0.0
 11
35.0
 21
60.0
 31
0.0
  0
LINE
  5
14F
100
AcDbEntity
  8
0
 62
256
370
-1
 48
1.0
  6
BYLAYER
100
AcDbLine
 10
85.0
 20
60.0
 30
0.0
 11
65.0
 21
60.0
 31
0.0
  0
LINE
  5
150
100
AcDbEntity
  8
0
 62
256
370
-1
 48
1.0
  6
BYLAYER
100
AcDbLine
 10
115.0
 20
60.0
 30
0.0
 11
95.0
 21
60.0
 31
0.0
  0
LINE
  5
151
100
AcDbEntity
  8
0
 62
256
370
-1
 48
1.0
  6
BYLAYER
100
AcDbLine
 10
145.0
 20
60.0
 30
0.0
 11
125.0
 21
60.0
 31
0.0
  0
LINE
  5
152
100
AcDbEntity
  8
0
 62
256
370
-1
 48
1.0
  6
BYLAYER
100
AcDbLine
 10
175.0
 20
60.0
 30
0.0
 11
155.0
 21
60.0
 31
0.0
  0
LINE
  5
153
100
AcDbEntity
  8
0
 62
256
370
-1
 48
1.0
  6
BYLAYER
100
AcDbLine
 10
205.0
 20
60.0
 30
0.0
 11
185.0
 21
60.0
 31
0.0
  0
LINE
  5
154
100
AcDbEntity
  8
0
 62
256
370
-1
 48
1.0
  6
BYLAYER
100
AcDbLine
 10
-205.0
 20
180.0
 30
0.0
 11
-205.0
 21
200.0
 31
0.0
  0
LINE
  5
155
100
AcDbEntity
  8
0
 62
256
370
-1
 48
1.0
  6
BYLAYER
100
AcDbLine
 10
-175.0
 20
180.0
 30
0.0
 11
-175.0
 21
200.0
 31
0.0
  0
LINE
  5
156
100
AcDbEntity
  8
0
 62
256
370
-1
 48
1.0
  6
BYLAYER
100
AcDbLine
 10
-145.0
 20
180.0
 30
0.0
 11
-145.0
 21
200.0
 31
0.0
  0
LINE
  5
157
100
AcDbEntity
  8
0
 62
256
370
-1
 48
1.0
  6
BYLAYER
100
AcDbLine
 10
-115.0
 20
180.0
 30
0.0
 11
-115.0
 21
200.0
 31
0.0
  0
LINE
  5
158
100
AcDbEntity
  8
0
 62
256
370
-1
 48
1.0
  6
BYLAYER
100
AcDbLine
 10
-85.0
 20
180.0
 30
0.0
 11
-85.0
 21
200.0
 31
0.0
  0
LINE
  5
159
100
AcDbEntity
  8
0
 62
256
370
-1
 48
1.0
  6
BYLAYER
100
AcDbLine
 10
-55.0
 20
180.0
 30
0.0
 11
-55.0
 21
200.0
 31
0.0
  0
LINE
  5
15A
100
AcDbEntity
  8
0
 62
256
370
-1
 48
1.0
  6
BYLAYER
100
AcDbLine
 10
-25.0
 20
180.0
 30
0.0
 11
-25.0
 21
200.0
 31
0.0
  0
LINE
  5
15B
100
AcDbEntity
  8
0
 62
256
370
-1
 48
1.0
  6
BYLAYER
100
AcDbLine
 10
5.0
 20
180.0
 30
0.0
 11
5.0
 21
200.0
 31
0.0
  0
LINE
  5
15C
100
AcDbEntity
  8
0
 62
256
370
-1
 48
1.0
  6
BYLAYER
100
AcDbLine
 10
35.0
 20
180.0
 30
0.0
 11
35.0
 21
200.0
 31
0.0
  0
LINE
  5
15D
100
AcDbEntity
  8
0
 62
256
370
-1
 48
1.0
  6
BYLAYER
100
AcDbLine
 10
65.0
 20
180.0
 30
0.0
 11
65.0
 21
200.0
 31
0.0
  0
LINE
  5
15E
100
AcDbEntity
  8
0
 62
256
370
-1
 48
1.0
  6
BYLAYER
100
AcDbLine
 10
95.0
 20
180.0
 30
0.0
 11
95.0
 21
200.0
 31
0.0
  0
LINE
  5
15F
100
AcDbEntity
  8
0
 62
256
370
-1
 48
1.0
  6
BYLAYER
100
AcDbLine
 10
125.0
 20
180.0
 30
0.0
 11
125.0
 21
200.0
 31
0.0
  0
LINE
  5
160
100
AcDbEntity
  8
0
 62
256
370
-1
 48
1.0
  6
BYLAYER
100
AcDbLine
 10
155.0
 20
180.0
 30
0.0
 11
155.0
 21
200.0
 31
0.0
  0
LINE
  5
161
100
AcDbEntity
  8
0
 62
256
370
-1
 48
1.0
  6
BYLAYER
100
AcDbLine
 10
185.0
 20
180.0
 30
0.0
 11
185.0
 21
200.0
 31
0.0
  0
LINE
  5
162
100
AcDbEntity
  8
0
 62
256
370
-1
 48
1.0
  6
BYLAYER
100
AcDbLine
 10
-205.0
 20
140.0
 30
0.0
 11
-205.0
 21
160.0
 31
0.0
  0
LINE
  5
163
100
AcDbEntity
  8
0
 62
256
370
-1
 48
1.0
  6
BYLAYER
100
AcDbLine
 10
-175.0
 20
140.0
 30
0.0
 11
-175.0
 21
160.0
 31
0.0
  0
LINE
  5
164
100
AcDbEntity
  8
0
 62
256
370
-1
 48
1.0
  6
BYLAYER
100
AcDbLine
 10
-145.0
 20
140.0
 30
0.0
 11
-145.0
 21
160.0
 31
0.0
  0
LINE
  5
165
100
AcDbEntity
  8
0
 62
256
370
-1
 48
1.0
  6
BYLAYER
100
AcDbLine
 10
-115.0
 20
140.0
 30
0.0
 11
-115.0
 21
160.0
 31
0.0
  0
LINE
  5
166
100
AcDbEntity
  8
0
 62
256
370
-1
 48
1.0
  6
BYLAYER
100
AcDbLine
 10
-85.0
 20
140.0
 30
0.0
 11
-85.0
 21
160.0
 31
0.0
  0
LINE
  5
167
100
AcDbEntity
  8
0
 62
256
370
-1
 48
1.0
  6
BYLAYER
100
AcDbLine
 10
-55.0
 20
140.0
 30
0.0
 11
-55.0
 21
160.0
 31
0.0
  0
LINE
  5
168
100
AcDbEntity
  8
0
 62
256
370
-1
 48
1.0
  6
BYLAYER
100
AcDbLine
 10
-25.0
 20
140.0
 30
0.0
 11
-25.0
 21
160.0
 31
0.0
  0
LINE
  5
169
100
AcDbEntity
  8
0
 62
256
370
-1
 48
1.0
  6
BYLAYER
100
AcDbLine
 10
5.0
 20
140.0
 30
0.0
 11
5.0
 21
160.0
 31
0.0
  0
LINE
  5
16A
100
AcDbEntity
  8
0
 62
256
370
-1
 48
1.0
  6
BYLAYER
100
AcDbLine
 10
35.0
 20
140.0
 30
0.0
 11
35.0
 21
160.0
 31
0.0
  0
LINE
  5
16B
100
AcDbEntity
  8
0
 62
256
370
-1
 48
1.0
  6
BYLAYER
100
AcDbLine
 10
65.0
 20
140.0
 30
0.0
 11
65.0
 21
160.0
 31
0.0
  0
LINE
  5
16C
100
AcDbEntity
  8
0
 62
256
370
-1
 48
1.0
  6
BYLAYER
100
AcDbLine
 10
95.0
 20
140.0
 30
0.0
 11
95.0
 21
160.0
 31
0.0
  0
LINE
  5
16D
100
AcDbEntity
  8
0
 62
256
370
-1
 48
1.0
  6
BYLAYER
100
AcDbLine
 10
125.0
 20
140.0
 30
0.0
 11
125.0
 21
160.0
 31
0.0
  0
LINE
  5
16E
100
AcDbEntity
  8
0
 62
256
370
-1
 48
1.0
  6
BYLAYER
100
AcDbLine
 10
155.0
 20
140.0
 30
0.0
 11
155.0
 21
160.0
 31
0.0
  0
LINE
  5
16F
100
AcDbEntity
  8
0
 62
256
370
-1
 48
1.0
  6
BYLAYER
100
AcDbLine
 10
185.0
 20
140.0
 30
0.0
 11
185.0
 21
160.0
 31
0.0
  0
LINE
  5
170
100
AcDbEntity
  8
0
 62
256
370
-1
 48
1.0
  6
BYLAYER
100
AcDbLine
 10
-205.0
 20
100.0
 30
0.0
 11
-205.0
 21
120.0
 31
0.0
  0
LINE
  5
171
100
AcDbEntity
  8
0
 62
256
370
-1
 48
1.0
  6
BYLAYER
100
AcDbLine
 10
-175.0
 20
100.0
 30
0.0
 11
-175.0
 21
120.0
 31
0.0
  0
LINE
  5
172
100
AcDbEntity
  8
0
 62
256
370
-1
 48
1.0
  6
BYLAYER
100
AcDbLine
 10
-145.0
 20
100.0
 30
0.0
 11
-145.0
 21
120.0
 31
0.0
  0
LINE
  5
173
100
AcDbEntity
  8
0
 62
256
370
-1
 48
1.0
  6
BYLAYER
100
AcDbLine
 10
-115.0
 20
100.0
 30
0.0
 11
-115.0
 21
120.0
 31
0.0
  0
LINE
  5
174
100
AcDbEntity
  8
0
 62
256
370
-1
 48
1.0
  6
BYLAYER
100
AcDbLine
 10
-85.0
 20
100.0
 30
0.0
 11
-85.0
 21
120.0
 31
0.0
  0
LINE
  5
175
100
AcDbEntity
  8
0
 62
256
370
-1
 48
1.0
  6
BYLAYER
100
AcDbLine
 10
-55.0
 20
100.0
 30
0.0
 11
-55.0
 21
120.0
 31
0.0
  0
LINE
  5
176
100
AcDbEntity
  8
0
 62
256
370
-1
 48
1.0
  6
BYLAYER
100
AcDbLine
 10
-25.0
 20
100.0
 30
0.0
 11
-25.0
 21
120.0
 31
0.0
  0
LINE
  5
177
100
AcDbEntity
  8
0
 62
256
370
-1
 48
1.0
  6
BYLAYER
100
AcDbLine
 10
5.0
 20
100.0
 30
0.0
 11
5.0
 21
120.0
 31
0.0
  0
LINE
  5
178
100
AcDbEntity
  8
0
 62
256
370
-1
 48
1.0
  6
BYLAYER
100
AcDbLine
 10
35.0
 20
100.0
 30
0.0
 11
35.0
 21
120.0
 31
0.0
  0
LINE
  5
179
100
AcDbEntity
  8
0
 62
256
370
-1
 48
1.0
  6
BYLAYER
100
AcDbLine
 10
65.0
 20
100.0
 30
0.0
 11
65.0
 21
120.0
 31
0.0
  0
LINE
  5
17A
100
AcDbEntity
  8
0
 62
256
370
-1
 48
1.0
  6
BYLAYER
100
AcDbLine
 10
95.0
 20
100.0
 30
0.0
 11
95.0
 21
120.0
 31
0.0
  0
LINE
  5
17B
100
AcDbEntity
  8
0
 62
256
370
-1
 48
1.0
  6
BYLAYER
100
AcDbLine
 10
125.0
 20
100.0
 30
0.0
 11
125.0
 21
120.0
 31
0.0
  0
LINE
  5
17C
100
AcDbEntity
  8
0
 62
256
370
-1
 48
1.0
  6
BYLAYER
100
AcDbLine
 10
155.0
 20
100.0
 30
0.0
 11
155.0
 21
120.0
 31
0.0
  0
LINE
  5
17D
100
AcDbEntity
  8
0
 62
256
370
-1
 48
1.0
  6
BYLAYER
100
AcDbLine
 10
185.0
 20
100.0
 30
0.0
 11
185.0
 21
120.0
 31
0.0
  0
LINE
  5
17E
100
AcDbEntity
  8
0
 62
256
370
-1
 48
1.0
  6
BYLAYER
100
AcDbLine
 10
-205.0
 20
60.0
 30
0.0
 11
-205.0
 21
80.0
 31
0.0
  0
LINE
  5
17F
100
AcDbEntity
  8
0
 62
256
370
-1
 48
1.0
  6
BYLAYER
100
AcDbLine
 10
-175.0
 20
60.0
 30
0.0
 11
-175.0
 21
80.0
 31
0.0
  0
LINE
  5
180
100
AcDbEntity
  8
0
 62
256
370
-1
 48
1.0
  6
BYLAYER
100
AcDbLine
 10
-145.0
 20
60.0
 30
0.0
 11
-145.0
 21
80.0
 31
0.0
  0
LINE
  5
181
100
AcDbEntity
  8
0
 62
256
370
-1
 48
1.0
  6
BYLAYER
100
AcDbLine
 10
-115.0
 20
60.0
 30
0.0
 11
-115.0
 21
80.0
 31
0.0
  0
LINE
  5
182
100
AcDbEntity
  8
0
 62
256
370
-1
 48
1.0
  6
BYLAYER
100
AcDbLine
 10
-85.0
 20
60.0
 30
0.0
 11
-85.0
 21
80.0
 31
0.0
  0
LINE
  5
183
100
AcDbEntity
  8
0
 62
256
370
-1
 48
1.0
  6
BYLAYER
100
AcDbLine
 10
-55.0
 20
60.0
 30
0.0
 11
-55.0
 21
80.0
 31
0.0
  0
LINE
  5
184
100
AcDbEntity
  8
0
 62
256
370
-1
 48
1.0
  6
BYLAYER
100
AcDbLine
 10
-25.0
 20
60.0
 30
0.0
 11
-25.0
 21
80.0
 31
0.0
  0
LINE
  5
185
100
AcDbEntity
  8
0
 62
256
370
-1
 48
1.0
  6
BYLAYER
100
AcDbLine
 10
5.0
 20
60.0
 30
0.0
 11
5.0
 21
80.0
 31
0.0
  0
LINE
  5
186
100
AcDbEntity
  8
0
 62
256
370
-1
 48
1.0
  6
BYLAYER
100
AcDbLine
 10
35.0
 20
60.0
 30
0.0
 11
35.0
 21
80.0
 31
0.0
  0
LINE
  5
187
100
AcDbEntity
  8
0
 62
256
370
-1
 48
1.0
  6
BYLAYER
100
AcDbLine
 10
65.0
 20
60.0
 30
0.0
 11
65.0
 21
80.0
 31
0.0
  0
LINE
  5
188
100
AcDbEntity
  8
0
 62
256
370
-1
 48
1.0
  6
BYLAYER
100
AcDbLine
 10
95.0
 20
60.0
 30
0.0
 11
95.0
 21
80.0
 31
0.0
  0
LINE
  5
189
100
AcDbEntity
  8
0
 62
256
370
-1
 48
1.0
  6
BYLAYER
100
AcDbLine
 10
125.0
 20
60.0
 30
0.0
 11
125.0
 21
80.0
 31
0.0
  0
LINE
  5
18A
100
AcDbEntity
  8
0
 62
256
370
-1
 48
1.0
  6
BYLAYER
100
AcDbLine
 10
155.0
 20
60.0
 30
0.0
 11
155.0
 21
80.0
 31
0.0
  0
LINE
  5
18B
100
AcDbEntity
  8
0
 62
256
370
-1
 48
1.0
  6
BYLAYER
100
AcDbLine
 10
185.0
 20
60.0
 30
0.0
 11
185.0
 21
80.0
 31
0.0
  0
LINE
  5
18C
100
AcDbEntity
  8
0
 62
256
370
-1
 48
1.0
  6
BYLAYER
100
AcDbLine
 10
-225.0
 20
50.0
 30
0.0
 11
225.0
 21
50.0
 31
0.0
  0
ENDBLK
  5
18D
100
AcDbEntity
  8
0
100
AcDbBlockEnd
  0
BLOCK
  5
18E
100
AcDbEntity
  8
0
100
AcDbBlockBegin
  2
PC
 70
0
 10
0.0
 20
0.0
 30
0.0
  3
PC
  1

  0
LINE
  5
18F
100
AcDbEntity
  8
0
 62
256
370
-1
 48
1.0
  6
BYLAYER
100
AcDbLine
 10
-240.0
 20
0.0
 30
0.0
 11
0.0
 21
0.0
 31
0.0
  0
LINE
  5
190
100
AcDbEntity
  8
0
 62
256
370
-1
 48
1.0
  6
BYLAYER
100
AcDbLine
 10
0.0
 20
0.0
 30
0.0
 11
0.0
 21
-590.0
 31
0.0
  0
LINE
  5
191
100
AcDbEntity
  8
0
 62
256
370
-1
 48
1.0
  6
BYLAYER
100
AcDbLine
 10
0.0
 20
-590.0
 30
0.0
 11
-240.0
 21
-590.0
 31
0.0
  0
LINE
  5
192
100
AcDbEntity
  8
0
 62
256
370
-1
 48
1.0
  6
BYLAYER
100
AcDbLine
 10
-240.0
 20
-590.0
 30
0.0
 11
-240.0
 21
0.0
 31
0.0
  0
ENDBLK
  5
193
100
AcDbEntity
  8
0
100
AcDbBlockEnd
  0
BLOCK
  5
194
100
AcDbEntity
  8
0
100
AcDbBlockBegin
  2
block 1
 70
0
 10
0.0
 20
0.0
 30
0.0
  3
block 1
  1

  0
LINE
  5
195
100
AcDbEntity
  8
0
 62
256
370
-1
 48
1.0
  6
BYLAYER
100
AcDbLine
 10
1500.0
 20
0.0
 30
0.0
 11
1500.0
 21
-649.9999999999922693
 31
0.0
  0
LINE
  5
196
100
AcDbEntity
  8
0
 62
256
370
-1
 48
1.0
  6
BYLAYER
100
AcDbLine
 10
0.0
 20
0.0
 30
0.0
 11
0.0
 21
-649.9999999999922693
 31
0.0
  0
ARC
  5
197
100
AcDbEntity
  8
0
 62
256
370
-1
 48
1.0
  6
BYLAYER
100
AcDbCircle
 10
1172.7480158730254516
 20
-893.5119047618723016
 30
0.0
 40
208.2786693685378054
100
AcDbArc
 50
210.7489282030530831
 51
277.5183582087756804
  0
ARC
  5
198
100
AcDbEntity
  8
0
 62
256
370
-1
 48
1.0
  6
BYLAYER
100
AcDbCircle
 10
327.2519841269745484
 20
-893.5119047618727564
 30
0.0
 40
208.2786693685378054
100
AcDbArc
 50
262.4816417912243196
 51
329.2510717969469169
  0
ARC
  5
199
100
AcDbEntity
  8
0
 62
256
370
-1
 48
1.0
  6
BYLAYER
100
AcDbCircle
 10
719.2025862068931019
 20
-1086.0695043103596618
 30
0.0
 40
287.7225086654131019
100
AcDbArc
 50
17.4059971533873004
 51
83.8553683618745254
  0
ARC
  5
19A
100
AcDbEntity
  8
0
 62
256
370
-1
 48
1.0
  6
BYLAYER
100
AcDbCircle
 10
780.7974137931068981
 20
-1086.0695043103596618
 30
0.0
 40
287.7225086654131019
100
AcDbArc
 50
96.1446316381254888
 51
162.5940028466127103
  0
ARC
  5
19B
100
AcDbEntity
  8
0
 62
256
370
-1
 48
1.0
  6
BYLAYER
100
AcDbCircle
 10
1024.9999999999940883
 20
-658.3333333333398514
 30
0.0
 40
475.0730937913133971
100
AcDbArc
 50
291.6147789427871544
 51
1.0050860052548671
  0
ARC
  5
19C
100
AcDbEntity
  8
0
 62
256
370
-1
 48
1.0
  6
BYLAYER
100
AcDbCircle
 10
475.0000000000059117
 20
-658.3333333333398514
 30
0.0
 40
475.0730937913133971
100
AcDbArc
 50
178.9949139947451329
 51
248.3852210572128456
  0
ENDBLK
  5
19D
100
AcDbEntity
  8
0
100
AcDbBlockEnd
  0
ENDSEC
  0
SECTION
  2
ENTITIES
  0
INSERT
  5
19E
100
AcDbEntity
  8
0
 62
256
370
-1
 48
1.0
  6
BYLAYER
100
AcDbBlockReference
  2
Monitor
 10
450.0
 20
1200.0
 30
0.0
  0
INSERT
  5
19F
100
AcDbEntity
  8
0
 62
256
370
-1
 48
1.0
  6
BYLAYER
100
AcDbBlockReference
  2
Monitor
 10
2950.0
 20
1200.0
 30
0.0
  0
INSERT
  5
1A0
100
AcDbEntity
  8
0
 62
1
420
16711680
370
-1
 48
1.0
  6
BYLAYER
100
AcDbBlockReference
  2
Chair
 10
2950.0
 20
-1640.0
 30
0.0
  0
INSERT
  5
1A1
100
AcDbEntity
  8
0
 62
256
370
-1
 48
1.0
  6
BYLAYER
100
AcDbBlockReference
  2
PC
 10
1140.0
 20
1220.0
 30
0.0
  0
LINE
  5
1A2
100
AcDbEntity
  8
0
 62
256
370
-1
 48
1.0
  6
BYLAYER
100
AcDbLine
 10
-300.0
 20
1250.0
 30
0.0
 11
1200.0
 21
1250.0
 31
0.0
  0
LINE
  5
1A3
100
AcDbEntity
  8
0
 62
256
370
-1
 48
1.0
  6
BYLAYER
100
AcDbLine
 10
2200.0
 20
1200.0
 30
0.0
 11
3700.0
 21
1200.0
 31
0.0
  0
LINE
  5
1A4
100
AcDbEntity
  8
0
 62
256
370
-1
 48
1.0
  6
BYLAYER
100
AcDbLine
 10
-300.0
 20
1250.0
 30
0.0
 11
-300.0
 21
100.0
 31
0.0
  0
LINE
  5
1A5
100
AcDbEntity
  8
0
 62
256
370
-1
 48
1.0
  6
BYLAYER
100
AcDbLine
 10
2200.0
 20
1200.0
 30
0.0
 11
2200.0
 21
100.0
 31
0.0
  0
LINE
  5
1A6
100
AcDbEntity
  8
0
 62
256
370
-1
 48
1.0
  6
BYLAYER
100
AcDbLine
 10
1200.0000000000004547
 20
1250.0
 30
0.0
 11
1199.9999999999997726
 21
600.0000000000080718
 31
0.0
  0
LINE
  5
1A7
100
AcDbEntity
  8
0
 62
256
370
-1
 48
1.0
  6
BYLAYER
100
AcDbLine
 10
3700.0
 20
1200.0
 30
0.0
 11
3700.0
 21
100.0
 31
0.0
  0
LINE
  5
1A8
100
AcDbEntity
  8
0
 62
256
370
-1
 48
1.0
  6
BYLAYER
100
AcDbLine
 10
3700.0
 20
100.0
 30
0.0
 11
3350.0
 21
100.0000000000000426
 31
0.0
  0
LINE
  5
1A9
100
AcDbEntity
  8
0
 62
256
370
-1
 48
1.0
  6
BYLAYER
100
AcDbLine
 10
-300.0
 20
100.0
 30
0.0
 11
150.0
 21
100.0
 31
0.0
  0
LINE
  5
1AA
100
AcDbEntity
  8
0
 62
256
370
-1
 48
1.0
  6
BYLAYER
100
AcDbLine
 10
2200.0
 20
100.0
 30
0.0
 11
2650.0
 21
100.0
 31
0.0
  0
LINE
  5
1AB
100
AcDbEntity
  8
0
 62
256
370
-1
 48
1.0
  6
BYLAYER
100
AcDbLine
 10
150.0
 20
100.0
 30
0.0
 11
281.25
 21
450.0
 31
0.0
  0
LINE
  5
1AC
100
AcDbEntity
  8
0
 62
256
370
-1
 48
1.0
  6
BYLAYER
100
AcDbLine
 10
2724.9999999999713509
 20
299.9999999999232045
 30
0.0
 11
2781.25
 21
450.0
 31
0.0
  0
LINE
  5
1AD
100
AcDbEntity
  8
0
 62
256
370
-1
 48
1.0
  6
BYLAYER
100
AcDbLine
 10
700.0
 20
500.0
 30
0.0
 11
700.0720259333545528
 21
499.783922199936228
 31
0.0
  0
LINE
  5
1AE
100
AcDbEntity
  8
0
 62
256
370
-1
 48
1.0
  6
BYLAYER
100
AcDbLine
 10
3200.0
 20
500.0
 30
0.0
 11
3200.0720259333547801
 21
499.783922199936228
 31
0.0
  0
LINE
  5
1AF
100
AcDbEntity
  8
0
 62
256
370
-1
 48
1.0
  6
BYLAYER
100
AcDbLine
 10
3118.75
 20
450.0
 30
0.0
 11
3175.0
 21
300.0
 31
0.0
  0
INSERT
  5
1B0
100
AcDbEntity
  8
0
 62
256
370
-1
 48
1.0
  6
BYLAYER
100
AcDbBlockReference
  2
Keyboard
 10
450.0
 20
530.0
 30
0.0
  0
LINE
  5
1B1
100
AcDbEntity
  8
0
 62
256
370
60
 48
1.0
  6
BYLAYER
100
AcDbLine
 10
-300.0
 20
1300.0
 30
0.0
 11
1200.0
 21
1300.0
 31
0.0
  0
LINE
  5
1B2
100
AcDbEntity
  8
0
 62
256
370
-1
 48
1.0
  6
BYLAYER
100
AcDbLine
 10
2200.0
 20
1300.0
 30
0.0
 11
3700.0
 21
1300.0
 31
0.0
  0
LINE
  5
1B3
100
AcDbEntity
  8
0
 62
256
370
60
 48
1.0
  6
BYLAYER
100
AcDbLine
 10
1300.0000000000009095
 20
1250.0
 30
0.0
 11
1300.0
 21
100.0
 31
0.0
  0
LINE
  5
1B4
100
AcDbEntity
  8
0
 62
256
370
-1
 48
1.0
  6
BYLAYER
100
AcDbLine
 10
3800.0000000000009095
 20
1200.0
 30
0.0
 11
3800.0
 21
100.0
 31
0.0
  0
LINE
  5
1B5
100
AcDbEntity
  8
0
 62
256
370
60
 48
1.0
  6
PHANTOMX2
100
AcDbLine
 10
1200.0
 20
1320.0
 30
0.0
 11
1200.0000000000002274
 21
1250.0
 31
0.0
  0
LINE
  5
1B6
100
AcDbEntity
  8
0
 62
256
370
-1
 48
1.0
  6
PHANTOMX2
100
AcDbLine
 10
3700.0
 20
1320.0
 30
0.0
 11
3700.0
 21
1200.0
 31
0.0
  0
LINE
  5
1B7
100
AcDbEntity
  8
0
 62
256
370
60
 48
1.0
  6
PHANTOMX2
100
AcDbLine
 10
1319.9999999999997726
 20
100.0
 30
0.0
 11
1199.9999999999997726
 21
100.0
 31
0.0
  0
LINE
  5
1B8
100
AcDbEntity
  8
0
 62
256
370
-1
 48
1.0
  6
PHANTOMX2
100
AcDbLine
 10
3820.0
 20
100.0
 30
0.0
 11
3700.0
 21
100.0
 31
0.0
  0
LINE
  5
1B9
100
AcDbEntity
  8
0
 62
256
370
60
 48
1.0
  6
PHANTOMX2
100
AcDbLine
 10
1500.0
 20
450.0
 30
0.0
 11
618.75
 21
450.0
 31
0.0
  0
LINE
  5
1BA
100
AcDbEntity
  8
0
 62
256
370
-1
 48
1.0
  6
PHANTOMX2
100
AcDbLine
 10
4000.0
 20
450.0
 30
0.0
 11
3118.75
 21
450.0
 31
0.0
  0
LINE
  5
1BB
100
AcDbEntity
  8
0
 62
256
370
60
 48
1.0
  6
PHANTOMX2
100
AcDbLine
 10
-300.0
 20
1320.0
 30
0.0
 11
-300.0
 21
1250.0
 31
0.0
  0
LINE
  5
1BC
100
AcDbEntity
  8
0
 62
256
370
-1
 48
1.0
  6
PHANTOMX2
100
AcDbLine
 10
2200.0
 20
1320.0
 30
0.0
 11
2200.0
 21
1200.0
 31
0.0
  0
LINE
  5
1BD
100
AcDbEntity
  8
0
 62
256
370
60
 48
1.0
  6
PHANTOMX2
100
AcDbLine
 10
1500.0
 20
1250.0
 30
0.0
 11
1200.0
 21
1250.0
 31
0.0
  0
LINE
  5
1BE
100
AcDbEntity
  8
0
 62
256
370
-1
 48
1.0
  6
PHANTOMX2
100
AcDbLine
 10
4000.0
 20
1200.0
 30
0.0
 11
3700.0
 21
1200.0
 31
0.0
  0
LINE
  5
1BF
100
AcDbEntity
  8
0
 62
256
370
60
 48
1.0
  6
BYLAYER
100
AcDbLine
 10
1200.0
 20
1300.0
 30
0.0
 11
1180.0
 21
1310.0
 31
0.0
  0
LINE
  5
1C0
100
AcDbEntity
  8
0
 62
256
370
-1
 48
1.0
  6
BYLAYER
100
AcDbLine
 10
3700.0
 20
1300.0
 30
0.0
 11
3680.0
 21
1310.0
 31
0.0
  0
LINE
  5
1C1
100
AcDbEntity
  8
0
 62
256
370
-1
 48
1.0
  6
BYLAYER
100
AcDbLine
 10
1299.9999999999997726
 20
100.0
 30
0.0
 11
1309.9999999999997726
 21
120.0
 31
0.0
  0
LINE
  5
1C2
100
AcDbEntity
  8
0
 62
256
370
-1
 48
1.0
  6
BYLAYER
100
AcDbLine
 10
3800.0
 20
100.0
 30
0.0
 11
3810.0
 21
120.0
 31
0.0
  0
LINE
  5
1C3
100
AcDbEntity
  8
0
 62
256
370
60
 48
1.0
  6
BYLAYER
100
AcDbLine
 10
1200.0
 20
1300.0
 30
0.0
 11
1180.0
 21
1290.0
 31
0.0
  0
LINE
  5
1C4
100
AcDbEntity
  8
0
 62
256
370
-1
 48
1.0
  6
BYLAYER
100
AcDbLine
 10
3700.0
 20
1300.0
 30
0.0
 11
3680.0
 21
1290.0
 31
0.0
  0
LINE
  5
1C5
100
AcDbEntity
  8
0
 62
256
370
-1
 48
1.0
  6
BYLAYER
100
AcDbLine
 10
1299.9999999999997726
 20
100.0
 30
0.0
 11
1289.9999999999997726
 21
120.0
 31
0.0
  0
LINE
  5
1C6
100
AcDbEntity
  8
0
 62
256
370
-1
 48
1.0
  6
BYLAYER
100
AcDbLine
 10
3800.0
 20
100.0
 30
0.0
 11
3790.0
 21
120.0
 31
0.0
  0
LINE
  5
1C7
100
AcDbEntity
  8
0
 62
256
370
60
 48
1.0
  6
BYLAYER
100
AcDbLine
 10
-300.0
 20
1300.0
 30
0.0
 11
-280.0
 21
1310.0
 31
0.0
  0
LINE
  5
1C8
100
AcDbEntity
  8
0
 62
256
370
-1
 48
1.0
  6
BYLAYER
100
AcDbLine
 10
2200.0
 20
1300.0
 30
0.0
 11
2220.0
 21
1310.0
 31
0.0
  0
LINE
  5
1C9
100
AcDbEntity
  8
0
 62
256
370
-1
 48
1.0
  6
BYLAYER
100
AcDbLine
 10
1300.0000000000009095
 20
1250.0
 30
0.0
 11
1309.9999999999990905
 21
1230.0
 31
0.0
  0
LINE
  5
1CA
100
AcDbEntity
  8
0
 62
256
370
-1
 48
1.0
  6
BYLAYER
100
AcDbLine
 10
3800.0000000000009095
 20
1200.0
 30
0.0
 11
3809.9999999999990905
 21
1180.0
 31
0.0
  0
LINE
  5
1CB
100
AcDbEntity
  8
0
 62
256
370
60
 48
1.0
  6
BYLAYER
100
AcDbLine
 10
-300.0
 20
1300.0
 30
0.0
 11
-280.0
 21
1290.0
 31
0.0
  0
LINE
  5
1CC
100
AcDbEntity
  8
0
 62
256
370
-1
 48
1.0
  6
BYLAYER
100
AcDbLine
 10
2200.0
 20
1300.0
 30
0.0
 11
2220.0
 21
1290.0
 31
0.0
  0
LINE
  5
1CD
100
AcDbEntity
  8
0
 62
256
370
-1
 48
1.0
  6
BYLAYER
100
AcDbLine
 10
1300.0000000000009095
 20
1250.0
 30
0.0
 11
1289.9999999999990905
 21
1230.0
 31
0.0
  0
LINE
  5
1CE
100
AcDbEntity
  8
0
 62
256
370
-1
 48
1.0
  6
BYLAYER
100
AcDbLine
 10
3800.0000000000009095
 20
1200.0
 30
0.0
 11
3789.9999999999990905
 21
1180.0
 31
0.0
  0
MTEXT
  5
1CF
100
AcDbEntity
  8
0
 62
256
370
-1
 48
1.0
  6
BYLAYER
100
AcDbMText
 10
450.0
 20
1310.0
 30
0.0
 40
45.0
 41
0.0
 71
8
 72
1
  1
150
  7
textstyle26
 50
0.0
 73
2
 44
1.0
  0
MTEXT
  5
1D0
100
AcDbEntity
  8
0
 62
256
370
-1
 48
1.0
  6
BYLAYER
100
AcDbMText
 10
2950.0
 20
1310.0
 30
0.0
 40
45.0
 41
0.0
 71
8
 72
1
  1
150
  7
textstyle16
 50
0.0
 73
2
 44
1.0
  0
MTEXT
  5
1D1
100
AcDbEntity
  8
0
 62
256
370
-1
 48
1.0
  6
BYLAYER
100
AcDbMText
 10
1310.0
 20
600.0
 30
0.0
 40
45.0
 41
0.0
 71
8
 72
1
  1
115
  7
textstyle27
 50
270.0
 73
2
 44
1.0
  0
MTEXT
  5
1D2
100
AcDbEntity
  8
0
 62
256
370
-1
 48
1.0
  6
BYLAYER
100
AcDbMText
 10
3810.0
 20
600.0000000000002274
 30
0.0
 40
45.0
 41
0.0
 71
8
 72
1
  1
110
  7
textstyle14
 50
270.0
 73
2
 44
1.0
  0
MTEXT
  5
1D3
100
AcDbEntity
  8
0
 62
256
370
-1
 48
1.0
  6
BYLAYER
100
AcDbMText
 10
1470.0
 20
900.0
 30
0.0
 40
45.0
 41
0.0
 71
8
 72
1
  1
80
  7
textstyle24
 50
270.0
 73
2
 44
1.0
  0
MTEXT
  5
1D4
100
AcDbEntity
  8
0
 62
256
370
-1
 48
1.0
  6
BYLAYER
100
AcDbMText
 10
3970.0
 20
840.0000000000001137
 30
0.0
 40
45.0
 41
0.0
 71
8
 72
1
  1
75
  7
textstyle15
 50
270.0
 73
2
 44
1.0
  0
MTEXT
  5
1D5
100
AcDbEntity
  8
0
 62
256
370
-1
 48
1.0
  6
BYLAYER
100
AcDbMText
 10
450.0
 20
460.0
 30
0.0
 40
35.0
 41
0.0
 71
8
 72
1
  1
33,75
  7
textstyle25
 50
0.0
 73
2
 44
1.0
  0
MTEXT
  5
1D6
100
AcDbEntity
  8
0
 62
256
370
-1
 48
1.0
  6
BYLAYER
100
AcDbMText
 10
2950.0
 20
460.0000000000000568
 30
0.0
 40
35.0
 41
0.0
 71
8
 72
1
  1
33,75
  7
textstyle12
 50
0.0
 73
2
 44
1.0
  0
MTEXT
  5
1D7
100
AcDbEntity
  8
0
 62
256
370
-1
 48
1.0
  6
BYLAYER
100
AcDbMText
 10
450.0
 20
-59.9999999999997726
 30
0.0
 40
35.0
 41
0.0
 71
8
 72
1
  1
60
  7
textstyle23
 50
0.0
 73
2
 44
1.0
  0
MTEXT
  5
1D8
100
AcDbEntity
  8
0
 62
256
370
-1
 48
1.0
  6
BYLAYER
100
AcDbMText
 10
2950.0
 20
539.9999999999998863
 30
0.0
 40
35.0
 41
0.0
 71
8
 72
1
  1
60
  7
textstyle13
 50
0.0
 73
2
 44
1.0
  0
MTEXT
  5
1D9
100
AcDbEntity
  8
0
 62
256
370
-1
 48
1.0
  6
BYLAYER
100
AcDbMText
 10
-30.0000000000000036
 20
112.4937511158723709
 30
0.0
 40
35.0
 41
0.0
 71
8
 72
1
  1
5
  7
textstyle30
 50
0.0
 73
2
 44
1.0
  0
MTEXT
  5
1DA
100
AcDbEntity
  8
0
 62
256
370
-1
 48
1.0
  6
BYLAYER
100
AcDbMText
 10
-146.3612918931375475
 20
47.1230416649901116
 30
0.0
 40
35.0
 41
0.0
 71
8
 72
1
  1
30
  7
textstyle29
 50
0.0
 73
2
 44
1.0
  0
MTEXT
  5
1DB
100
AcDbEntity
  8
0
 62
256
370
-1
 48
1.0
  6
BYLAYER
100
AcDbMText
 10
200.0
 20
402.4937511158723851
 30
0.0
 40
35.0
 41
0.0
 71
8
 72
1
  1
61
  7
textstyle28
 50
0.0
 73
2
 44
1.0
  0
LINE
  5
1DC
100
AcDbEntity
  8
0
 62
256
370
60
 48
1.0
  6
BYLAYER
100
AcDbLine
 10
400.0
 20
100.0
 30
0.0
 11
500.0
 21
100.0
 31
0.0
  0
LINE
  5
1DD
100
AcDbEntity
  8
0
 62
256
370
-1
 48
1.0
  6
BYLAYER
100
AcDbLine
 10
2900.0
 20
100.0
 30
0.0
 11
3000.0
 21
100.0
 31
0.0
  0
MTEXT
  5
1DE
100
AcDbEntity
  8
0
 62
256
370
-1
 48
1.0
  6
BYLAYER
100
AcDbMText
 10
440.0
 20
260.0
 30
0.0
 40
35.0
 41
0.0
 71
8
 72
1
  1
35
  7
textstyle22
 50
90.0
 73
2
 44
1.0
  0
MTEXT
  5
1DF
100
AcDbEntity
  8
0
 62
256
370
-1
 48
1.0
  6
BYLAYER
100
AcDbMText
 10
2940.0
 20
260.0000000000000568
 30
0.0
 40
35.0
 41
0.0
 71
8
 72
1
  1
35
  7
textstyle11
 50
90.0
 73
2
 44
1.0
  0
LINE
  5
1E0
100
AcDbEntity
  8
0
 62
256
370
60
 48
1.0
  6
BYLAYER
100
AcDbLine
 10
450.0
 20
100.0
 30
0.0
 11
450.0
 21
450.0
 31
0.0
  0
LINE
  5
1E1
100
AcDbEntity
  8
0
 62
256
370
-1
 48
1.0
  6
BYLAYER
100
AcDbLine
 10
2950.0
 20
100.0
 30
0.0
 11
2950.0
 21
450.0
 31
0.0
  0
LINE
  5
1E2
100
AcDbEntity
  8
0
 62
256
370
60
 48
1.0
  6
BYLAYER
100
AcDbLine
 10
150.0000000000292744
 20
179.9999999999997442
 30
0.0
 11
160.0000000000292744
 21
179.9999999999904503
 31
0.0
  0
LINE
  5
1E3
100
AcDbEntity
  8
0
 62
256
370
-1
 48
1.0
  6
BYLAYER
100
AcDbLine
 10
3250.0
 20
229.9999999999999432
 30
0.0
 11
3240.0
 21
229.9999999999999432
 31
0.0
  0
LINE
  5
1E4
100
AcDbEntity
  8
0
 62
256
370
-1
 48
1.0
  6
BYLAYER
100
AcDbLine
 10
2650.0000000000295586
 20
229.9999999999928377
 30
0.0
 11
2660.0000000000295586
 21
229.9999999999835438
 31
0.0
  0
LINE
  5
1E5
100
AcDbEntity
  8
0
 62
256
370
60
 48
1.0
  6
BYLAYER
100
AcDbLine
 10
150.000000000047919
 20
199.9999999999997726
 30
0.0
 11
170.000000000047919
 21
199.999999999981128
 31
0.0
  0
LINE
  5
1E6
100
AcDbEntity
  8
0
 62
256
370
-1
 48
1.0
  6
BYLAYER
100
AcDbLine
 10
3250.0
 20
249.9999999999999432
 30
0.0
 11
3230.0
 21
249.9999999999999432
 31
0.0
  0
LINE
  5
1E7
100
AcDbEntity
  8
0
 62
256
370
-1
 48
1.0
  6
BYLAYER
100
AcDbLine
 10
2650.0000000000482032
 20
249.9999999999928662
 30
0.0
 11
2670.0000000000482032
 21
249.9999999999742215
 31
0.0
  0
LINE
  5
1E8
100
AcDbEntity
  8
0
 62
256
370
60
 48
1.0
  6
BYLAYER
100
AcDbLine
 10
150.0000000000755449
 20
229.9999999999997442
 30
0.0
 11
194.3514762909214255
 21
229.9999999999585896
 31
0.0
  0
LINE
  5
1E9
100
AcDbEntity
  8
0
 62
256
370
-1
 48
1.0
  6
BYLAYER
100
AcDbLine
 10
3250.0
 20
279.9999999999999432
 30
0.0
 11
3205.6485237091542331
 21
280.0
 31
0.0
  0
LINE
  5
1EA
100
AcDbEntity
  8
0
 62
256
370
-1
 48
1.0
  6
BYLAYER
100
AcDbLine
 10
2650.0000000000759428
 20
279.9999999999928377
 30
0.0
 11
2694.3514762909217097
 21
279.9999999999516831
 31
0.0
  0
LINE
  5
1EB
100
AcDbEntity
  8
0
 62
256
370
60
 48
1.0
  6
BYLAYER
100
AcDbLine
 10
150.0000000000850946
 20
239.9999999999997442
 30
0.0
 11
207.1278848630110474
 21
239.9999999999466525
 31
0.0
  0
LINE
  5
1EC
100
AcDbEntity
  8
0
 62
256
370
-1
 48
1.0
  6
BYLAYER
100
AcDbLine
 10
3250.0
 20
289.9999999999999432
 30
0.0
 11
3192.8721151370737061
 21
290.0
 31
0.0
  0
LINE
  5
1ED
100
AcDbEntity
  8
0
 62
256
370
-1
 48
1.0
  6
BYLAYER
100
AcDbLine
 10
2650.0000000000854925
 20
289.9999999999928377
 30
0.0
 11
2707.1278848630113316
 21
289.999999999939746
 31
0.0
  0
LINE
  5
1EE
100
AcDbEntity
  8
0
 62
256
370
60
 48
1.0
  6
BYLAYER
100
AcDbLine
 10
749.9999999999998863
 20
100.00000000000027
 30
0.0
 11
750.0
 21
-100.0
 31
0.0
  0
LINE
  5
1EF
100
AcDbEntity
  8
0
 62
256
370
-1
 48
1.0
  6
BYLAYER
100
AcDbLine
 10
3250.0
 20
200.0000000000062244
 30
0.0
 11
3250.0
 21
560.0
 31
0.0
  0
LINE
  5
1F0
100
AcDbEntity
  8
0
 62
256
370
60
 48
1.0
  6
BYLAYER
100
AcDbLine
 10
150.0
 20
100.0
 30
0.0
 11
150.0
 21
-100.0
 31
0.0
  0
LINE
  5
1F1
100
AcDbEntity
  8
0
 62
256
370
-1
 48
1.0
  6
BYLAYER
100
AcDbLine
 10
2650.0
 20
100.0
 30
0.0
 11
2650.0
 21
560.0
 31
0.0
  0
LINE
  5
1F2
100
AcDbEntity
  8
0
 62
256
370
60
 48
1.0
  6
BYLAYER
100
AcDbLine
 10
150.0000000000944169
 20
249.9999999999997442
 30
0.0
 11
225.0000000000941895
 21
249.9999999999300542
 31
0.0
  0
LINE
  5
1F3
100
AcDbEntity
  8
0
 62
256
370
-1
 48
1.0
  6
BYLAYER
100
AcDbLine
 10
3250.0
 20
300.0
 30
0.0
 11
3175.0
 21
300.0
 31
0.0
  0
LINE
  5
1F4
100
AcDbEntity
  8
0
 62
256
370
-1
 48
1.0
  6
BYLAYER
100
AcDbLine
 10
2650.0000000000945874
 20
299.9999999999928377
 30
0.0
 11
2725.0000000000945874
 21
299.9999999999231477
 31
0.0
  0
ARC
  5
1F5
100
AcDbEntity
  8
0
 62
256
370
60
 48
1.0
  6
BYLAYER
100
AcDbCircle
 10
334.9999999999592433
 20
104.9999999998225633
 30
0.0
 40
190.3943276466000327
100
AcDbArc
 50
150.0684881594375497
 51
166.3286928677493961
  0
ARC
  5
1F6
100
AcDbEntity
  8
0
 62
256
370
-1
 48
1.0
  6
BYLAYER
100
AcDbCircle
 10
3065.0
 20
154.9999999999947136
 30
0.0
 40
190.3943276466000327
100
AcDbArc
 50
13.6713071321973754
 51
29.9315118405092129
  0
ARC
  5
1F7
100
AcDbEntity
  8
0
 62
256
370
-1
 48
1.0
  6
BYLAYER
100
AcDbCircle
 10
2834.9999999999595275
 20
154.9999999998156568
 30
0.0
 40
190.3943276466000327
100
AcDbArc
 50
150.0684881594375497
 51
166.3286928677493961
  0
ARC
  5
1F8
100
AcDbEntity
  8
0
 62
256
370
60
 48
1.0
  6
BYLAYER
100
AcDbCircle
 10
274.8818403687928935
 20
139.8799755942071101
 30
0.0
 40
120.890933380817998
100
AcDbArc
 50
114.3694338439460978
 51
150.1779441681374294
  0
ARC
  5
1F9
100
AcDbEntity
  8
0
 62
256
370
-1
 48
1.0
  6
BYLAYER
100
AcDbCircle
 10
3125.1181596311989779
 20
189.8799755943232981
 30
0.0
 40
120.890933380817998
100
AcDbArc
 50
29.8220558318093261
 51
65.6305661560006399
  0
ARC
  5
1FA
100
AcDbEntity
  8
0
 62
256
370
-1
 48
1.0
  6
BYLAYER
100
AcDbCircle
 10
2774.8818403687932914
 20
189.8799755942002037
 30
0.0
 40
120.890933380817998
100
AcDbArc
 50
114.3694338439460978
 51
150.1779441681374294
  0
LINE
  5
1FB
100
AcDbEntity
  8
0
 62
256
370
-1
 48
1.0
  6
BYLAYER
100
AcDbLine
 10
3279.2893218813451313
 20
129.2893218813451881
 30
0.0
 11
3350.0
 21
200.0
 31
0.0
  0
ARC
  5
1FC
100
AcDbEntity
  8
0
 62
256
370
-1
 48
1.0
  6
BYLAYER
100
AcDbCircle
 10
3350.0
 20
200.0
 30
0.0
 40
100.0000000000001137
100
AcDbArc
 50
180.0
 51
270.0
  0
MTEXT
  5
1FD
100
AcDbEntity
  8
0
 62
256
370
-1
 48
1.0
  6
BYLAYER
100
AcDbMText
 10
3300.0
 20
160.000000000000199
 30
0.0
 40
25.0
 41
0.0
 71
8
 72
1
  1
R10
  7
textstyle10
 50
45.0
 73
2
 44
1.0
  0
LINE
  5
1FE
100
AcDbEntity
  8
0
 62
256
370
-1
 48
1.0
  6
BYLAYER
100
AcDbLine
 10
3279.2893218813451313
 20
129.2893218813451881
 30
0.0
 11
3283.0
 21
131.0
 31
0.0
  0
LINE
  5
1FF
100
AcDbEntity
  8
0
 62
256
370
-1
 48
1.0
  6
BYLAYER
100
AcDbLine
 10
3279.2893218813451313
 20
129.2893218813451881
 30
0.0
 11
3281.0
 21
133.0
 31
0.0
  0
LINE
  5
200
100
AcDbEntity
  8
0
 62
256
370
-1
 48
1.0
  6
BYLAYER
100
AcDbLine
 10
281.25
 20
450.0
 30
0.0
 11
618.75
 21
450.0
 31
0.0
  0
LINE
  5
201
100
AcDbEntity
  8
0
 62
256
370
-1
 48
1.0
  6
BYLAYER
100
AcDbLine
 10
2781.25
 20
450.0
 30
0.0
 11
3118.75
 21
450.0
 31
0.0
  0
LINE
  5
202
100
AcDbEntity
  8
0
 62
256
370
-1
 48
1.0
  6
BYLAYER
100
AcDbLine
 10
1115.0
 20
550.0
 30
0.0
 11
1115.0
 21
1150.0
 31
0.0
  0
LINE
  5
203
100
AcDbEntity
  8
0
 62
256
370
-1
 48
1.0
  6
BYLAYER
100
AcDbLine
 10
3615.0
 20
550.0
 30
0.0
 11
3615.0
 21
1150.0
 31
0.0
  0
LINE
  5
204
100
AcDbEntity
  8
0
 62
256
370
-1
 48
1.0
  6
BYLAYER
100
AcDbLine
 10
-185.0
 20
550.0
 30
0.0
 11
-185.0
 21
1150.0
 31
0.0
  0
LINE
  5
205
100
AcDbEntity
  8
0
 62
256
370
-1
 48
1.0
  6
BYLAYER
100
AcDbLine
 10
2315.0
 20
550.0
 30
0.0
 11
2315.0
 21
1150.0
 31
0.0
  0
LINE
  5
206
100
AcDbEntity
  8
0
 62
256
370
-1
 48
1.0
  6
BYLAYER
100
AcDbLine
 10
1115.0
 20
1150.0
 30
0.0
 11
1085.0
 21
1150.0
 31
0.0
  0
LINE
  5
207
100
AcDbEntity
  8
0
 62
256
370
-1
 48
1.0
  6
BYLAYER
100
AcDbLine
 10
3615.0
 20
1150.0
 30
0.0
 11
3585.0
 21
1150.0
 31
0.0
  0
LINE
  5
208
100
AcDbEntity
  8
0
 62
256
370
-1
 48
1.0
  6
BYLAYER
100
AcDbLine
 10
-185.0
 20
1150.0
 30
0.0
 11
-215.0
 21
1150.0
 31
0.0
  0
LINE
  5
209
100
AcDbEntity
  8
0
 62
256
370
-1
 48
1.0
  6
BYLAYER
100
AcDbLine
 10
2315.0
 20
1150.0
 30
0.0
 11
2285.0
 21
1150.0
 31
0.0
  0
LINE
  5
20A
100
AcDbEntity
  8
0
 62
256
370
-1
 48
1.0
  6
BYLAYER
100
AcDbLine
 10
1085.0
 20
1150.0
 30
0.0
 11
1085.0
 21
550.0
 31
0.0
  0
LINE
  5
20B
100
AcDbEntity
  8
0
 62
256
370
-1
 48
1.0
  6
BYLAYER
100
AcDbLine
 10
3585.0
 20
1150.0
 30
0.0
 11
3585.0
 21
550.0
 31
0.0
  0
LINE
  5
20C
100
AcDbEntity
  8
0
 62
256
370
-1
 48
1.0
  6
BYLAYER
100
AcDbLine
 10
-215.0
 20
1150.0
 30
0.0
 11
-215.0
 21
550.0
 31
0.0
  0
LINE
  5
20D
100
AcDbEntity
  8
0
 62
256
370
-1
 48
1.0
  6
BYLAYER
100
AcDbLine
 10
2285.0
 20
1150.0
 30
0.0
 11
2285.0
 21
550.0
 31
0.0
  0
LINE
  5
20E
100
AcDbEntity
  8
0
 62
256
370
-1
 48
1.0
  6
BYLAYER
100
AcDbLine
 10
1085.0
 20
550.0
 30
0.0
 11
1115.0
 21
550.0
 31
0.0
  0
LINE
  5
20F
100
AcDbEntity
  8
0
 62
256
370
-1
 48
1.0
  6
BYLAYER
100
AcDbLine
 10
3585.0
 20
550.0
 30
0.0
 11
3615.0
 21
550.0
 31
0.0
  0
LINE
  5
210
100
AcDbEntity
  8
0
 62
256
370
-1
 48
1.0
  6
BYLAYER
100
AcDbLine
 10
-215.0
 20
550.0
 30
0.0
 11
-185.0
 21
550.0
 31
0.0
  0
LINE
  5
211
100
AcDbEntity
  8
0
 62
256
370
-1
 48
1.0
  6
BYLAYER
100
AcDbLine
 10
2285.0
 20
550.0
 30
0.0
 11
2315.0
 21
550.0
 31
0.0
  0
CIRCLE
  5
212
100
AcDbEntity
  8
0
 62
256
370
-1
 48
1.0
  6
BYLAYER
100
AcDbCircle
 10
1100.0
 20
1130.0
 30
0.0
 40
10.0
  0
CIRCLE
  5
213
100
AcDbEntity
  8
0
 62
256
370
-1
 48
1.0
  6
BYLAYER
100
AcDbCircle
 10
3600.0
 20
1130.0
 30
0.0
 40
10.0
  0
CIRCLE
  5
214
100
AcDbEntity
  8
0
 62
256
370
-1
 48
1.0
  6
BYLAYER
100
AcDbCircle
 10
1100.0
 20
570.0
 30
0.0
 40
10.0
  0
CIRCLE
  5
215
100
AcDbEntity
  8
0
 62
256
370
-1
 48
1.0
  6
BYLAYER
100
AcDbCircle
 10
3600.0
 20
570.0
 30
0.0
 40
10.0
  0
CIRCLE
  5
216
100
AcDbEntity
  8
0
 62
256
370
-1
 48
1.0
  6
BYLAYER
100
AcDbCircle
 10
-200.0
 20
1130.0
 30
0.0
 40
10.0
  0
CIRCLE
  5
217
100
AcDbEntity
  8
0
 62
256
370
-1
 48
1.0
  6
BYLAYER
100
AcDbCircle
 10
2300.0
 20
1130.0
 30
0.0
 40
10.0
  0
CIRCLE
  5
218
100
AcDbEntity
  8
0
 62
256
370
-1
 48
1.0
  6
BYLAYER
100
AcDbCircle
 10
-200.0
 20
570.0
 30
0.0
 40
10.0
  0
CIRCLE
  5
219
100
AcDbEntity
  8
0
 62
256
370
-1
 48
1.0
  6
BYLAYER
100
AcDbCircle
 10
2300.0
 20
570.0
 30
0.0
 40
10.0
  0
LINE
  5
21A
100
AcDbEntity
  8
0
 62
256
370
-1
 48
1.0
  6
BYLAYER
100
AcDbLine
 10
1100.0
 20
570.0
 30
0.0
 11
1100.0
 21
1130.0
 31
0.0
  0
LINE
  5
21B
100
AcDbEntity
  8
0
 62
256
370
-1
 48
1.0
  6
BYLAYER
100
AcDbLine
 10
3600.0
 20
570.0
 30
0.0
 11
3600.0
 21
1130.0
 31
0.0
  0
LINE
  5
21C
100
AcDbEntity
  8
0
 62
256
370
-1
 48
1.0
  6
BYLAYER
100
AcDbLine
 10
-200.0
 20
570.0
 30
0.0
 11
-200.0
 21
1130.0
 31
0.0
  0
LINE
  5
21D
100
AcDbEntity
  8
0
 62
256
370
-1
 48
1.0
  6
BYLAYER
100
AcDbLine
 10
2300.0
 20
570.0
 30
0.0
 11
2300.0
 21
1130.0
 31
0.0
  0
LINE
  5
21E
100
AcDbEntity
  8
0
 62
256
370
-1
 48
1.0
  6
BYLAYER
100
AcDbLine
 10
3250.0
 20
200.0000000000058833
 30
0.0
 11
3350.0
 21
200.0
 31
0.0
  0
LINE
  5
21F
100
AcDbEntity
  8
0
 62
256
370
-1
 48
1.0
  6
BYLAYER
100
AcDbLine
 10
3350.0
 20
200.0
 30
0.0
 11
3350.0
 21
100.0000000000000426
 31
0.0
  0
MTEXT
  5
220
100
AcDbEntity
  8
0
 62
256
370
60
 48
1.0
  6
BYLAYER
100
AcDbMText
 10
160.0000000000487148
 20
200.9999999999905071
 30
0.0
 40
8.0
 41
0.0
 71
8
 72
1
  1
2
  7
textstyle21
 50
360.0
 73
2
 44
1.0
  0
MTEXT
  5
221
100
AcDbEntity
  8
0
 62
256
370
-1
 48
1.0
  6
BYLAYER
100
AcDbMText
 10
3240.0
 20
251.0000000000000568
 30
0.0
 40
8.0
 41
0.0
 71
8
 72
1
  1
2
  7
textstyle9
 50
0.0
 73
2
 44
1.0
  0
MTEXT
  5
222
100
AcDbEntity
  8
0
 62
256
370
-1
 48
1.0
  6
BYLAYER
100
AcDbMText
 10
2660.0000000000491127
 20
250.9999999999835723
 30
0.0
 40
8.0
 41
0.0
 71
8
 72
1
  1
2
  7
textstyle7
 50
0.0
 73
2
 44
1.0
  0
MTEXT
  5
223
100
AcDbEntity
  8
0
 62
256
370
60
 48
1.0
  6
BYLAYER
100
AcDbMText
 10
155.0000000000300702
 20
180.9999999999951399
 30
0.0
 40
8.0
 41
0.0
 71
8
 72
1
  1
1
  7
textstyle18
 50
360.0
 73
2
 44
1.0
  0
MTEXT
  5
224
100
AcDbEntity
  8
0
 62
256
370
-1
 48
1.0
  6
BYLAYER
100
AcDbMText
 10
3245.0
 20
230.9999999999998863
 30
0.0
 40
8.0
 41
0.0
 71
8
 72
1
  1
1
  7
textstyle8
 50
0.0
 73
2
 44
1.0
  0
MTEXT
  5
225
100
AcDbEntity
  8
0
 62
256
370
-1
 48
1.0
  6
BYLAYER
100
AcDbMText
 10
2655.0000000000304681
 20
230.9999999999882618
 30
0.0
 40
8.0
 41
0.0
 71
8
 72
1
  1
1
  7
textstyle5
 50
0.0
 73
2
 44
1.0
  0
MTEXT
  5
226
100
AcDbEntity
  8
0
 62
256
370
60
 48
1.0
  6
BYLAYER
100
AcDbMText
 10
170.0000000000765681
 20
230.9999999999812133
 30
0.0
 40
7.0
 41
0.0
 71
8
 72
1
  1
4,4
  7
textstyle17
 50
360.0
 73
2
 44
1.0
  0
MTEXT
  5
227
100
AcDbEntity
  8
0
 62
256
370
-1
 48
1.0
  6
BYLAYER
100
AcDbMText
 10
3230.0
 20
280.9999999999998863
 30
0.0
 40
7.0
 41
0.0
 71
8
 72
1
  1
4,4
  7
textstyle6
 50
0.0
 73
2
 44
1.0
  0
MTEXT
  5
228
100
AcDbEntity
  8
0
 62
256
370
-1
 48
1.0
  6
BYLAYER
100
AcDbMText
 10
2670.0000000000768523
 20
280.9999999999742499
 30
0.0
 40
7.0
 41
0.0
 71
8
 72
1
  1
4,4
  7
textstyle3
 50
0.0
 73
2
 44
1.0
  0
MTEXT
  5
229
100
AcDbEntity
  8
0
 62
256
370
60
 48
1.0
  6
BYLAYER
100
AcDbMText
 10
179.5263837380221617
 20
241.2290137203214897
 30
0.0
 40
7.0
 41
0.0
 71
8
 72
1
  1
5,7
  7
textstyle20
 50
360.0
 73
2
 44
1.0
  0
MTEXT
  5
22A
100
AcDbEntity
  8
0
 62
256
370
-1
 48
1.0
  6
BYLAYER
100
AcDbMText
 10
3220.4736162620638424
 20
291.229013720349144
 30
0.0
 40
7.0
 41
0.0
 71
8
 72
1
  1
5,7
  7
textstyle4
 50
0.0
 73
2
 44
1.0
  0
MTEXT
  5
22B
100
AcDbEntity
  8
0
 62
256
370
-1
 48
1.0
  6
BYLAYER
100
AcDbMText
 10
2679.5263837380225596
 20
291.2290137203145832
 30
0.0
 40
7.0
 41
0.0
 71
8
 72
1
  1
5,7
  7
textstyle1
 50
0.0
 73
2
 44
1.0
  0
MTEXT
  5
22C
100
AcDbEntity
  8
0
 62
256
370
60
 48
1.0
  6
BYLAYER
100
AcDbMText
 10
190.9859026264479667
 20
251.203039419488249
 30
0.0
 40
8.0
 41
0.0
 71
8
 72
1
  1
7,5
  7
textstyle19
 50
360.0
 73
2
 44
1.0
  0
MTEXT
  5
22D
100
AcDbEntity
  8
0
 62
256
370
-1
 48
1.0
  6
BYLAYER
100
AcDbMText
 10
3209.0140973736474734
 20
301.203039419526533
 30
0.0
 40
8.0
 41
0.0
 71
8
 72
1
  1
7,5
  7
textstyle2
 50
0.0
 73
2
 44
1.0
  0
MTEXT
  5
22E
100
AcDbEntity
  8
0
 62
256
370
-1
 48
1.0
  6
BYLAYER
100
AcDbMText
 10
2690.9859026264484783
 20
301.2030394194813425
 30
0.0
 40
8.0
 41
0.0
 71
8
 72
1
  1
7,5
  7
textstyle0
 50
0.0
 73
2
 44
1.0
  0
LINE
  5
22F
100
AcDbEntity
  8
0
 62
256
370
60
 48
1.0
  6
BYLAYER
100
AcDbLine
 10
150.0
 20
-69.9999999999997726
 30
0.0
 11
750.0
 21
-70.0
 31
0.0
  0
LINE
  5
230
100
AcDbEntity
  8
0
 62
256
370
-1
 48
1.0
  6
BYLAYER
100
AcDbLine
 10
2650.0
 20
530.0
 30
0.0
 11
3250.0
 21
529.9999999999997726
 31
0.0
  0
LINE
  5
231
100
AcDbEntity
  8
0
 62
256
370
-1
 48
1.0
  6
BYLAYER
100
AcDbLine
 10
1460.0
 20
450.0
 30
0.0
 11
1460.0
 21
1250.0
 31
0.0
  0
LINE
  5
232
100
AcDbEntity
  8
0
 62
256
370
-1
 48
1.0
  6
BYLAYER
100
AcDbLine
 10
3960.0
 20
450.0
 30
0.0
 11
3960.0
 21
1200.0
 31
0.0
  0
ARC
  5
233
100
AcDbEntity
  8
0
 62
256
370
-1
 48
1.0
  6
BYLAYER
100
AcDbCircle
 10
27.2519841269744063
 20
356.4880952381280963
 30
0.0
 40
208.2786693685378054
100
AcDbArc
 50
262.4816417912243196
 51
329.2510717969468601
  0
ARC
  5
234
100
AcDbEntity
  8
0
 62
256
370
-1
 48
1.0
  6
BYLAYER
100
AcDbCircle
 10
872.7480158730255653
 20
356.4880952381280395
 30
0.0
 40
208.2786693685378054
100
AcDbArc
 50
210.7489282030530831
 51
277.5183582087756804
  0
ARC
  5
235
100
AcDbEntity
  8
0
 62
256
370
-1
 48
1.0
  6
BYLAYER
100
AcDbCircle
 10
480.7974137931067844
 20
163.9304956896403382
 30
0.0
 40
287.7225086654131019
100
AcDbArc
 50
96.1446316381254888
 51
162.5940028466126819
  0
ARC
  5
236
100
AcDbEntity
  8
0
 62
256
370
-1
 48
1.0
  6
BYLAYER
100
AcDbCircle
 10
419.2025862068932156
 20
163.9304956896403382
 30
0.0
 40
287.7225086654131019
100
AcDbArc
 50
17.4059971533873004
 51
83.8553683618745254
  0
ARC
  5
237
100
AcDbEntity
  8
0
 62
256
370
-1
 48
1.0
  6
BYLAYER
100
AcDbCircle
 10
175.0000000000057696
 20
591.6666666666601486
 30
0.0
 40
475.0730937913133971
100
AcDbArc
 50
178.9949139947451329
 51
248.3852210572128456
  0
ARC
  5
238
100
AcDbEntity
  8
0
 62
256
370
-1
 48
1.0
  6
BYLAYER
100
AcDbCircle
 10
724.999999999994202
 20
591.6666666666601486
 30
0.0
 40
475.0730937913133971
100
AcDbArc
 50
291.6147789427871544
 51
1.0050860052548671
  0
LINE
  5
239
100
AcDbEntity
  8
0
 62
256
370
-1
 48
1.0
  6
BYLAYER
100
AcDbLine
 10
-0.0000000000259348
 20
149.9999999999996589
 30
0.0
 11
0.0
 21
40.0
 31
0.0
  0
LINE
  5
23A
100
AcDbEntity
  8
0
 62
256
370
-1
 48
1.0
  6
BYLAYER
100
AcDbLine
 10
281.25
 20
450.0
 30
0.0
 11
316.1878430886906699
 21
399.9134002086468627
 31
0.0
  0
LINE
  5
23B
100
AcDbEntity
  8
0
 62
256
370
-1
 48
1.0
  6
BYLAYER
100
AcDbLine
 10
230.0
 20
420.0
 30
0.0
 11
300.0
 21
420.0
 31
0.0
  0
INSERT
  5
23C
100
AcDbEntity
  8
0
 62
256
370
-1
 48
1.0
  6
BYLAYER
100
AcDbBlockReference
  2
block 1
 10
2200.0
 20
-500.0
 30
0.0
  0
LINE
  5
23D
100
AcDbEntity
  8
0
 62
256
370
-1
 48
1.0
  6
BYLAYER
100
AcDbLine
 10
2950.0
 20
-1560.0
 30
0.0
 11
2950.0
 21
-1300.0
 31
0.0
  0
ENDSEC
  0
SECTION
  2
OBJECTS
  0
DICTIONARY
  5
C
100
AcDbDictionary
280
0
281
1
  3
ACAD_GROUP
350
D
  3
ACAD_LAYOUT
350
1A
  3
ACAD_MLINESTYLE
350
17
  3
ACAD_PLOTSETTINGS
350
19
  3
ACAD_PLOTSTYLENAME
350
E
  3
AcDbVariableDictionary
350
23E
  3
QCAD_OBJECTS
350
23F
  0
DICTIONARY
  5
D
100
AcDbDictionary
280
0
281
1
  0
ACDBDICTIONARYWDFLT
  5
E
100
AcDbDictionary
281
1
  3
Normal
350
F
100
AcDbDictionaryWithDefault
340
F
  0
ACDBPLACEHOLDER
  5
F
  0
DICTIONARY
  5
17
100
AcDbDictionary
280
0
281
1
  3
Standard
350
18
  0
MLINESTYLE
  5
18
100
AcDbMlineStyle
  2
STANDARD
 70
0
  3

 62
256
 51
90.0
 52
90.0
 71
2
 49
0.5
 62
256
  6
BYLAYER
 49
-0.5
 62
256
  6
BYLAYER
  0
DICTIONARY
  5
19
100
AcDbDictionary
280
0
281
1
  0
DICTIONARY
  5
1A
100
AcDbDictionary
281
1
  3
Layout1
350
1E
  3
Layout2
350
26
  3
Model
350
22
  0
LAYOUT
  5
1E
100
AcDbPlotSettings
  1

  2
none_device
  4

  6

 40
0.0
 41
0.0
 42
0.0
 43
0.0
 44
0.0
 45
0.0
 46
0.0
 47
0.0
 48
0.0
 49
0.0
140
0.0
141
0.0
142
1.0
143
1.0
 70
688
 72
0
 73
0
 74
5
  7

 75
16
147
1.0
148
0.0
149
0.0
100
AcDbLayout
  1
Layout1
 70
1
 71
1
 10
0.0
 20
0.0
 11
420.0
 21
297.0
 12
0.0
 22
0.0
 32
0.0
 14
100000000000000000000.0
 24
100000000000000000000.0
 34
100000000000000000000.0
 15
-100000000000000000000.0
 25
-100000000000000000000.0
 35
-100000000000000000000.0
146
0.0
 13
0.0
 23
0.0
 33
0.0
 16
1.0
 26
0.0
 36
0.0
 17
0.0
 27
1.0
 37
0.0
 76
0
330
1B
  0
LAYOUT
  5
22
100
AcDbPlotSettings
  1

  2
none_device
  4

  6

 40
0.0
 41
0.0
 42
0.0
 43
0.0
 44
0.0
 45
0.0
 46
0.0
 47
0.0
 48
0.0
 49
0.0
140
0.0
141
0.0
142
1.0
143
1.0
 70
1712
 72
0
 73
0
 74
0
  7

 75
0
147
1.0
148
0.0
149
0.0
100
AcDbLayout
  1
Model
 70
1
 71
0
 10
0.0
 20
0.0
 11
12.0
 21
9.0
 12
0.0
 22
0.0
 32
0.0
 14
0.0
 24
0.0
 34
0.0
 15
0.0
 25
0.0
 35
0.0
146
0.0
 13
0.0
 23
0.0
 33
0.0
 16
1.0
 26
0.0
 36
0.0
 17
0.0
 27
1.0
 37
0.0
 76
0
330
1F
  0
LAYOUT
  5
26
100
AcDbPlotSettings
  1

  2
none_device
  4

  6

 40
0.0
 41
0.0
 42
0.0
 43
0.0
 44
0.0
 45
0.0
 46
0.0
 47
0.0
 48
0.0
 49
0.0
140
0.0
141
0.0
142
1.0
143
1.0
 70
688
 72
0
 73
0
 74
5
  7

 75
16
147
1.0
148
0.0
149
0.0
100
AcDbLayout
  1
Layout2
 70
1
 71
2
 10
0.0
 20
0.0
 11
12.0
 21
9.0
 12
0.0
 22
0.0
 32
0.0
 14
0.0
 24
0.0
 34
0.0
 15
0.0
 25
0.0
 35
0.0
146
0.0
 13
0.0
 23
0.0
 33
0.0
 16
1.0
 26
0.0
 36
0.0
 17
0.0
 27
1.0
 37
0.0
 76
0
330
23
  0
DICTIONARY
  5
23E
100
AcDbDictionary
281
1
  3
DIMASSOC
350
241
  3
HIDETEXT
350
240
  0
DICTIONARYVAR
  5
240
100
DictionaryVariables
280
0
  1
2
  0
DICTIONARYVAR
  5
241
100
DictionaryVariables
280
0
  1
1
  0
DICTIONARY
  5
23F
100
AcDbDictionary
281
1
  3
ColorSettings/BackgroundColor
350
242
  3
ColorSettings/ColorMode
350
243
  3
DimensionSettings/AngularFormat
350
244
  3
DimensionSettings/AngularPrecision
350
245
  3
DimensionSettings/DecimalPoint
350
246
  3
DimensionSettings/DimensionFont
350
247
  3
DimensionSettings/KeepProportions
350
248
  3
DimensionSettings/LinearFormat
350
249
  3
DimensionSettings/LinearPrecision
350
24A
  3
Grid/DisplayGrid00
350
24B
  3
Grid/DisplayGrid01
350
24C
  3
Grid/DisplayGrid02
350
24D
  3
Grid/DisplayGrid03
350
24E
  3
Grid/GridSpacingX00
350
24F
  3
Grid/GridSpacingX01
350
250
  3
Grid/GridSpacingX02
350
251
  3
Grid/GridSpacingX03
350
252
  3
Grid/GridSpacingY00
350
253
  3
Grid/GridSpacingY01
350
254
  3
Grid/GridSpacingY02
350
255
  3
Grid/GridSpacingY03
350
256
  3
Grid/IsometricGrid00
350
257
  3
Grid/IsometricGrid01
350
258
  3
Grid/IsometricGrid02
350
259
  3
Grid/IsometricGrid03
350
25A
  3
Grid/IsometricProjection00
350
25B
  3
Grid/IsometricProjection01
350
25C
  3
Grid/IsometricProjection02
350
25D
  3
Grid/IsometricProjection03
350
25E
  3
Grid/MetaGridSpacingX00
350
25F
  3
Grid/MetaGridSpacingX01
350
260
  3
Grid/MetaGridSpacingX02
350
261
  3
Grid/MetaGridSpacingX03
350
262
  3
Grid/MetaGridSpacingY00
350
263
  3
Grid/MetaGridSpacingY01
350
264
  3
Grid/MetaGridSpacingY02
350
265
  3
Grid/MetaGridSpacingY03
350
266
  3
LinetypeSettings/PSLTSCALE
350
267
  3
MultiPageSettings/Columns
350
268
  3
MultiPageSettings/GlueMarginsBottom
350
269
  3
MultiPageSettings/GlueMarginsLeft
350
26A
  3
MultiPageSettings/GlueMarginsRight
350
26B
  3
MultiPageSettings/GlueMarginsTop
350
26C
  3
MultiPageSettings/PrintCropMarks
350
26D
  3
MultiPageSettings/Rows
350
26E
  3
PageSettings/OffsetX
350
26F
  3
PageSettings/OffsetY
350
270
  3
PageSettings/PageOrientation
350
271
  3
PageSettings/PaperHeight
350
272
  3
PageSettings/PaperSizeName
350
273
  3
PageSettings/PaperWidth
350
274
  3
PageSettings/PointSize
350
275
  3
PageSettings/Scale
350
276
  3
PageSettings/ShowPaperBorders
350
277
  3
PageTagSettings/EnablePageTags
350
278
  3
PageTagSettings/TagAlignment
350
279
  3
PageTagSettings/TagFont
350
27A
  3
PageTagSettings/TagPosition
350
27B
  3
QCADVersion
350
27C
  3
UnitSettings/Measurement
350
27D
  3
UnitSettings/PaperUnit
350
27E
  3
ViewportCenter
350
27F
  3
ViewportHeight
350
280
  3
ViewportWidth
350
281
  0
XRECORD
  5
242
330
23F
100
AcDbXrecord
280
1
1000
White
  0
XRECORD
  5
243
330
23F
100
AcDbXrecord
280
1
1000
FullColor
  0
XRECORD
  5
244
330
23F
100
AcDbXrecord
280
1
 90
0
  0
XRECORD
  5
245
330
23F
100
AcDbXrecord
280
1
 90
0
  0
XRECORD
  5
246
330
23F
100
AcDbXrecord
280
1
 90
46
  0
XRECORD
  5
247
330
23F
100
AcDbXrecord
280
1
1000
MS Shell Dlg 2
  0
XRECORD
  5
248
330
23F
100
AcDbXrecord
280
1
290
1
  0
XRECORD
  5
249
330
23F
100
AcDbXrecord
280
1
 90
2
  0
XRECORD
  5
24A
330
23F
100
AcDbXrecord
280
1
 90
2
  0
XRECORD
  5
24B
330
23F
100
AcDbXrecord
280
1
290
1
  0
XRECORD
  5
24C
330
23F
100
AcDbXrecord
280
1
290
1
  0
XRECORD
  5
24D
330
23F
100
AcDbXrecord
280
1
290
1
  0
XRECORD
  5
24E
330
23F
100
AcDbXrecord
280
1
290
1
  0
XRECORD
  5
24F
330
23F
100
AcDbXrecord
280
1
1000
auto
  0
XRECORD
  5
250
330
23F
100
AcDbXrecord
280
1
1000
auto
  0
XRECORD
  5
251
330
23F
100
AcDbXrecord
280
1
1000
auto
  0
XRECORD
  5
252
330
23F
100
AcDbXrecord
280
1
1000
auto
  0
XRECORD
  5
253
330
23F
100
AcDbXrecord
280
1
1000
auto
  0
XRECORD
  5
254
330
23F
100
AcDbXrecord
280
1
1000
auto
  0
XRECORD
  5
255
330
23F
100
AcDbXrecord
280
1
1000
auto
  0
XRECORD
  5
256
330
23F
100
AcDbXrecord
280
1
1000
auto
  0
XRECORD
  5
257
330
23F
100
AcDbXrecord
280
1
290
0
  0
XRECORD
  5
258
330
23F
100
AcDbXrecord
280
1
290
0
  0
XRECORD
  5
259
330
23F
100
AcDbXrecord
280
1
290
0
  0
XRECORD
  5
25A
330
23F
100
AcDbXrecord
280
1
290
0
  0
XRECORD
  5
25B
330
23F
100
AcDbXrecord
280
1
 90
65537
  0
XRECORD
  5
25C
330
23F
100
AcDbXrecord
280
1
 90
65537
  0
XRECORD
  5
25D
330
23F
100
AcDbXrecord
280
1
 90
65537
  0
XRECORD
  5
25E
330
23F
100
AcDbXrecord
280
1
 90
65537
  0
XRECORD
  5
25F
330
23F
100
AcDbXrecord
280
1
1000
auto
  0
XRECORD
  5
260
330
23F
100
AcDbXrecord
280
1
1000
auto
  0
XRECORD
  5
261
330
23F
100
AcDbXrecord
280
1
1000
auto
  0
XRECORD
  5
262
330
23F
100
AcDbXrecord
280
1
1000
auto
  0
XRECORD
  5
263
330
23F
100
AcDbXrecord
280
1
1000
auto
  0
XRECORD
  5
264
330
23F
100
AcDbXrecord
280
1
1000
auto
  0
XRECORD
  5
265
330
23F
100
AcDbXrecord
280
1
1000
auto
  0
XRECORD
  5
266
330
23F
100
AcDbXrecord
280
1
1000
auto
  0
XRECORD
  5
267
330
23F
100
AcDbXrecord
280
1
290
0
  0
XRECORD
  5
268
330
23F
100
AcDbXrecord
280
1
 90
1
  0
XRECORD
  5
269
330
23F
100
AcDbXrecord
280
1
 40
10.0
  0
XRECORD
  5
26A
330
23F
100
AcDbXrecord
280
1
 40
10.0
  0
XRECORD
  5
26B
330
23F
100
AcDbXrecord
280
1
 40
10.0
  0
XRECORD
  5
26C
330
23F
100
AcDbXrecord
280
1
 40
10.0
  0
XRECORD
  5
26D
330
23F
100
AcDbXrecord
280
1
290
0
  0
XRECORD
  5
26E
330
23F
100
AcDbXrecord
280
1
 90
1
  0
XRECORD
  5
26F
330
23F
100
AcDbXrecord
280
1
 40
0.0
  0
XRECORD
  5
270
330
23F
100
AcDbXrecord
280
1
 40
0.0
  0
XRECORD
  5
271
330
23F
100
AcDbXrecord
280
1
1000
Portrait
  0
XRECORD
  5
272
330
23F
100
AcDbXrecord
280
1
 40
420.0
  0
XRECORD
  5
273
330
23F
100
AcDbXrecord
280
1
1000
ISO A3
  0
XRECORD
  5
274
330
23F
100
AcDbXrecord
280
1
 40
297.0
  0
XRECORD
  5
275
330
23F
100
AcDbXrecord
280
1
1000
0.5
  0
XRECORD
  5
276
330
23F
100
AcDbXrecord
280
1
1000
1:1
  0
XRECORD
  5
277
330
23F
100
AcDbXrecord
280
1
290
1
  0
XRECORD
  5
278
330
23F
100
AcDbXrecord
280
1
290
0
  0
XRECORD
  5
279
330
23F
100
AcDbXrecord
280
1
1000
Inside
  0
XRECORD
  5
27A
330
23F
100
AcDbXrecord
280
1
1000
Arial,10,-1,5,50,0,0,0,0,0
  0
XRECORD
  5
27B
330
23F
100
AcDbXrecord
280
1
1000
TopLeft
  0
XRECORD
  5
27C
330
23F
100
AcDbXrecord
280
1
1000
3.24.2
  0
XRECORD
  5
27D
330
23F
100
AcDbXrecord
280
1
 90
1
  0
XRECORD
  5
27E
330
23F
100
AcDbXrecord
280
1
 90
5
  0
XRECORD
  5
280
330
23F
100
AcDbXrecord
280
1
 40
2101.605128842645172
  0
XRECORD
  5
281
330
23F
100
AcDbXrecord
280
1
 40
4121.1163073398747656
  0
ENDSEC
  0
EOF
